Guitaretab - guitar tabs
Song name
# A B C D E F G H I J K L M N O P Q R S T U V W X Y Z

Greeley Estates - Yall With The Vampire Squad tab

I figured this tab out by ear. Im pretty sure its correct. Really close at least. Ive 
most of the tabs on here and those are all correct so check those out also.

e--------------------------------------------------------|
b--------------------------------------------------------|
g---4-2----------4-2-4-5-4---4-2-------------------------|
d-22-5-5-4h5p0-22-5--------22-5-5-4h5p0-0-00-0-0-0-0-0-0-|
a-22-----------22----------22-----------0-00-0-0-0-0-0-0-|
e-22-----------22----------22-----------0-00-0-0-0-0-0-0-|

e--------------------------------------------------------|
b--------------------------------------------------------|
g---4-2----------4-2-4-5-4---4-2-------------------------|
d-22-5-5-4h5p0-22-5--------22-5-5-4h5p0-0-00-0-0-0-0-0-0-|
a-22-----------22----------22-----------0-00-0-0-0-0-0-0-|
e-22-----------22----------22-----------0-00-0-0-0-0-0-0-|

e----------------------------------------------------------|
b----------------------------------------------------------|
g----4----4---4----4-----4------2----2---2-----2-4-5-4-2-4-|
d-22-2-22-2-2-2-22-2-222-2-2-00-0-00-0-0-0-0-0-0-----------|
a-22-2-22-2-2-2-22-2-222-2-2-00-0-00-0-0-0-0-0-0-----------|
e-22-2-22-2-2-2-22-2-222-2-2-00-0-00-0-0-0-0-0-0-----------|
  xx   xx   x   xx   xxx   x xx   xx   x   x x

e------------------------------------------------------|
b------------------------------------------------------|
g----4----4---4----4-----4------2----2---2-4-4-4-5-5-5-|
d-22-2-22-2-2-2-22-2-222-2-2-00-0-00-0-0-0-------------|
a-22-2-22-2-2-2-22-2-222-2-2-00-0-00-0-0-0-2-2-2-3-3-3-|
e-22-2-22-2-2-2-22-2-222-2-2-00-0-00-0-0-0-------------|
  xx   xx   x   xx   xxx   x xx   xx   x

e----------------------------------------------------------|
b----------------------------------------------------------|
g----4----4---4----4-----4------2----2---2-----2-4-5-4-2-4-|
d-22-2-22-2-2-2-22-2-222-2-2-00-0-00-0-0-0-0-0-0-----------|
a-22-2-22-2-2-2-22-2-222-2-2-00-0-00-0-0-0-0-0-0-----------|
e-22-2-22-2-2-2-22-2-222-2-2-00-0-00-0-0-0-0-0-0-----------|
  xx   xx   x   xx   xxx   x xx   xx   x   x x

e------------------------------------------------------|
b------------------------------------------------------|
g----4----4---4----4-----4------2----2---2-4-4-4-5-5-5-|
d-22-2-22-2-2-2-22-2-222-2-2-00-0-00-0-0-0-------------|
a-22-2-22-2-2-2-22-2-222-2-2-00-0-00-0-0-0-2-2-2-3-3-3-|
e-22-2-22-2-2-2-22-2-222-2-2-00-0-00-0-0-0-------------|
  xx   xx   x   xx   xxx   x xx   xx   x

e---------------------------------------------------------------------------|
b---------------------------------------------------------------------------|
g-2222-4444-5555-7777-2222-4444-4-4-4-2222-4444-5555-7777-55555555-44444444-|
d-2222----------------2222------2-2-2-2222----------------------------------|
a-0000-2222-3333-5555-0000-2222-2-2-2-0000-2222-3333-5555-33333333-22222222-|
e-------------------------------2-2-2---------------------------------------|

e--------------------------------------------------------|
b--------------------------------------------------------|
g---4-2----------4-2-4-5-4---4-2-------------------------|
d-22-5-5-4h5p0-22-5--------22-5-5-4h5p0-0-00-0-0-0-0-0-0-|
a-22-----------22----------22-----------0-00-0-0-0-0-0-0-|
e-22-----------22----------22-----------0-00-0-0-0-0-0-0-|

e--------------------------------------------------------|
b--------------------------------------------------------|
g---4-2----------4-2-4-5-4---4-2-------------------------|
d-22-5-5-4h5p0-22-5--------22-5-5-4h5p0-0-00-0-0-0-0-0-0-|
a-22-----------22----------22-----------0-00-0-0-0-0-0-0-|
e-22-----------22----------22-----------0-00-0-0-0-0-0-0-|

e----------------------------------------------------------|
b----------------------------------------------------------|
g----4----4---4----4-----4------2----2---2-----2-4-5-4-2-4-|
d-22-2-22-2-2-2-22-2-222-2-2-00-0-00-0-0-0-0-0-0-----------|
a-22-2-22-2-2-2-22-2-222-2-2-00-0-00-0-0-0-0-0-0-----------|
e-22-2-22-2-2-2-22-2-222-2-2-00-0-00-0-0-0-0-0-0-----------|
  xx   xx   x   xx   xxx   x xx   xx   x   x x

e------------------------------------------------------|
b------------------------------------------------------|
g----4----4---4----4-----4------2----2---2-4-4-4-5-5-5-|
d-22-2-22-2-2-2-22-2-222-2-2-00-0-00-0-0-0-------------|
a-22-2-22-2-2-2-22-2-222-2-2-00-0-00-0-0-0-2-2-2-3-3-3-|
e-22-2-22-2-2-2-22-2-222-2-2-00-0-00-0-0-0-------------|
  xx   xx   x   xx   xxx   x xx   xx   x
[ Tab from: http://www.guitaretab.com/g/greeley-estates/71079.html ]
e----------------------------------------------------------|
b----------------------------------------------------------|
g----4----4---4----4-----4------2----2---2-----2-4-5-4-2-4-|
d-22-2-22-2-2-2-22-2-222-2-2-00-0-00-0-0-0-0-0-0-----------|
a-22-2-22-2-2-2-22-2-222-2-2-00-0-00-0-0-0-0-0-0-----------|
e-22-2-22-2-2-2-22-2-222-2-2-00-0-00-0-0-0-0-0-0-----------|
  xx   xx   x   xx   xxx   x xx   xx   x   x x

e------------------------------------------------------|
b------------------------------------------------------|
g----4----4---4----4-----4------2----2---2-4-4-4-5-5-5-|
d-22-2-22-2-2-2-22-2-222-2-2-00-0-00-0-0-0-------------|
a-22-2-22-2-2-2-22-2-222-2-2-00-0-00-0-0-0-2-2-2-3-3-3-|
e-22-2-22-2-2-2-22-2-222-2-2-00-0-00-0-0-0-------------|
  xx   xx   x   xx   xxx   x xx   xx   x


e---------------------------------------------------------------------------|
b---------------------------------------------------------------------------|
g-2222-4444-5555-7777-2222-4444-4-4-4-2222-4444-5555-7777-55555555-44444444-|
d-2222----------------2222------2-2-2-2222----------------------------------|
a-0000-2222-3333-5555-0000-2222-2-2-2-0000-2222-3333-5555-33333333-22222222-|
e-------------------------------2-2-2---------------------------------------|

e--------------------------------------------------------|
b--------------------------------------------------------|
g---4-2----------4-2-4-5-4---4-2-------------------------|
d-22-5-5-4h5p0-22-5--------22-5-5-4h5p0-0-00-0-0-0-0-0-0-|
a-22-----------22----------22-----------0-00-0-0-0-0-0-0-|
e-22-----------22----------22-----------0-00-0-0-0-0-0-0-|

e--------------------------------------------------------|
b--------------------------------------------------------|
g---4-2----------4-2-4-5-4---4-2-------------------------|
d-22-5-5-4h5p0-22-5--------22-5-5-4h5p0-0-00-0-0-0-0-0-0-|
a-22-----------22----------22-----------0-00-0-0-0-0-0-0-|
e-22-----------22----------22-----------0-00-0-0-0-0-0-0-|

(play with a little delay)
e---------------------------------------|
b---------------------------------------|
g-2-7-4-2-7-4-4-2-7-4-2-7-4-------------|
d-2-----2-------2-----2-----------------|
a-0-5-2-0-5-2-2-0-5-2-0-5-2-------------|
e---------------------------------------|

e------------------------------------------------------------|
b------------------------------------------------------------|
g------------------------------------------------------------|
d--10-9-7-9-5v--10-9-7-9-5-4h5p4---5-4-2-4----5-4-2-4--------|
a-7------------7-----------------3--------3v-3-------3-2h3p2-|
e------------------------------------------------------------|

e------------------------------------------------------------|
b------------------------------------------------------------|
g------------------------------------------------------------|
d--10-9-7-9-5v--10-9-7-9-5-4h5p4---5-4-2-4----5-4-2-4--------|
a-7------------7-----------------3--------3v-3-------3-2h3p2-|
e------------------------------------------------------------|

e------------------------------------------------------------|
b------------------------------------------------------------|
g------------------------------------------------------------|
d--10-9-7-9-5v--10-9-7-9-5-4h5p4---5-4-2-4----5-4-2-4--------|
a-7------------7-----------------3--------3v-3-------3-2h3p2-|
e------------------------------------------------------------|

e------------------------------------------------------------|
b------------------------------------------------------------|
g------------------------------------------------------------|
d--10-9-7-9-5v--10-9-7-9-5-4h5p4---5-4-2-4----5-4-2-4--------|
a-7------------7-----------------3--------3v-3-------3-2h3p2-|
e------------------------------------------------------------|


e---------------------------------------------------------------------------|
b---------------------------------------------------------------------------|
g-2222-4444-5555-7777-2222-4444-4-4-4-2222-4444-5555-7777-55555555-44444444-|
d-2222----------------2222------2-2-2-2222----------------------------------|
a-0000-2222-3333-5555-0000-2222-2-2-2-0000-2222-3333-5555-33333333-22222222-|
e-------------------------------2-2-2---------------------------------------|

e--------------------------------------------------------|
b--------------------------------------------------------|
g---4-2----------4-2-4-5-4---4-2-------------------------|
d-22-5-5-4h5p0-22-5--------22-5-5-4h5p0-0-00-0-0-0-0-0-0-|
a-22-----------22----------22-----------0-00-0-0-0-0-0-0-|
e-22-----------22----------22-----------0-00-0-0-0-0-0-0-|

e------------------------------------------------------|
b------------------------------------------------------|
g---4-2----------4-2-4-5-4---4-2---------------------4-|
d-22-5-5-4h5p0-22-5--------22-5-5-4h5p0-0-00-0-0-0-0---|
a-22-----------22----------22-----------0-00-0-0-0-0-2-|
e-22-----------22----------22-----------0-00-0-0-0-0---|
Related for Yall With The Vampire Squad tab