Guitaretab - guitar tabs
Song name
# A B C D E F G H I J K L M N O P Q R S T U V W X Y Z

Greeley Estates - See Your Scar tab

E--------------------------------|
A--------------------------------|
D-----7--------------------------|
G-5-5--5-7-7-8--8-7-8-7-12-12-10-|
B--------------------------------|
E--------------------------------|

E-------------------------------|
A-------------------------------|
D-----7-------------------------|
G-5-5--5-7-7-8--8-7-8-7-3-3-7---|
B-------------------------------|
E-------------------------------|
[ Tab from: http://www.guitaretab.com/g/greeley-estates/80200.html ]
Related for See Your Scar tab
Advertisement will be closed in 10 seconds