Song name
# A B C D E F G H I J K L M N O P Q R S T U V W X Y Z

Green Bean - Hey Boy tab

(Intro)
-1-1-1-2-2-2-3-3-3-4-4-4-5-5-5-6-6-6-7-7-7-8-8-8-8-|
-------------------------------------------8-8-8-8-|
---------------------------------------------------|
---------------------------------------------------|
---------------------------------------------------|
---------------------------------------------------|


(Verse)
--------------------------------|
--------------------------------|
-------7-7-7-------5-5-5--------|
-7-7-7-7-7-7-5-5-5-5-5-5--------|
-7-7-7-5-5-5-5-5-5-3-3-3--------|
-5-5-5-------3-3-3--------------|

(Solo)
-1-2-1-2-1-2-1-2-5-6-5-6-5-6-5-6-------------------------------|
---------------------------------1-2-1-2-1-2-1-2-5-6-5-6-5-6-5-|
---------------------------------------------------------------|
---------------------------------------------------------------|
---------------------------------------------------------------|
---------------------------------------------------------------|
Tap to rate this tab
# A B C D E F G H I J K L M N O P Q R S T U V W X Y Z