Guitaretab - guitar tabs
Song name
# A B C D E F G H I J K L M N O P Q R S T U V W X Y Z

Green Day - Chump tab

-------------------------------------------------------------------------------
			     CHUMP  Green Day
-------------------------------------------------------------------------------
Tabbed by: Thedboy

Tuning: Down Half a step

| /  slide up
| \  slide down
| h  hammer-on
| p  pull-off
| ~  vibrato
| +  harmonic
| x  Mute note

No-one seems to be able to tab this correctly, so here is my version. I think I managed 
tab the bridge/outro pretty well.

Intro (x2)
e---------0-000000-----------------------------------------------------------------|
B---------0-000000-----------------------------------------------------------------|
G-4-4-444-1-111111-----------------------------------------------------------------|
D-4-4-444-2-222222-----------------------------------------------------------------|
A-2-2-222-2-222222-----------------------------------------------------------------|
E---------0-000000-----------------------------------------------------------------|

Verse (x2)
e---------0-000000-----------------------------------------------------------------|
B---------0-000000-----------------------------------------------------------------|
G-4-4-444-1-111111-----------------------------------------------------------------|
D-4-4-444-2-222222(x3)-4-4444444444-----------------------------------------------|
A-2-2-222-2-222222------4-4444444444-----------------------------------------------|
E---------0-000000------2-2222222222-----------------------------------------------|

Chorus
e------0-00-----------------------0-0-000-----------------------------------|
B-----0-00-----------------------0-0-000-----------------------------------|
G-2-22-1-11-4-4-444-------2-2-222-1-1-111-----------------------------------|
D-2-22-2-22-4-4-444-(x3)--2-2-222-2-2-222-----------------------------------|
A-0-00-2-22-2-2-222-------0-0-000-2-2-222-----------------------------------|
E------0-00-----------------------0-0-000-----------------------------------|

Bridge. The bridge is based around a bass riff and the guitar comes in a certain times 
it. The first chord is left over from the intro.
[ Tab from: http://www.guitaretab.com/g/green-day/120597.html ]
e---------------------------------------------------------------------------|
B---------------------------------------------------------------------------|
G-4~---------------11~-----------------11~----------------11~---------------|
D-4~-(bass riff x8)11~--(bass riff x4)-11~-(bass riff x2)-11~-(bass riff x1)|
A-2~---------------9~------------------9~-----------------9~----------------|
E---------------------------------------------------------------------------|

e|---------------------------------------------------------------------------|
B|---------------------------------------------------------------------------|
G|-11~----------------11~--9~--11~-9~----------------------------------------|
D|-11~-(bass riff x1)--11~--9~--11~-9~--4~-2~-4~-2~--4~-2~--------------------|
A|-9~-----------------9~---7~--9~--7~--4~-2~-4~-2~--4~-2~--------------------|
E|-------------------------------------2~-0~-2~-0~--2~-0~--------------------|

Outro

e|---------------------------------------------------------------------------|
B|---|super fast strum-|-------|super fast strum-|---------------------------|
G|-9/181818181818181818------9/222222222222222222----------------------------|
D|-9/181818181818181818(x5)-9/222222222222222222(x5)-----------------------|
A|-7/161616161616161616------7/202020202020202020----------------------------|
E|---------------------------------------------------------------------------|

Play the chord 6 times.
e|----------------------------------------------------------------------------|
B|----------------------------------------------------------------------------|
G|----------------------------------------------------------------------------|
D|-4~-------------------------------------------------------------------------|
A|-4~-------------------------------------------------------------------------|
E|-2~-------------------------------------------------------------------------|

Fade into longview.

Im not gonna put the order in coz its easy to work out, but here are the lyrics:

I don't know you
But, I think I hate you
You're the reason for my misery
Strange how you've become my biggest enemy
And I've never even seen your face

Well maybe it's just jealousy
Mixing up with a violent mind
A circumstance that doesn't make much sense
Or maybe I'm just dumb

You're the cloud hangin out over my head
Hail comes crashing down welting my face
Magic man, egocentric plastic man
Yet you still got one over on me

Well maybe it's just jealousy
Mixing up with a violent mind
A circumstance that doesn't make much sense
Or maybe I'm just dumb

I'm a chump
==============================================================================================
Related for Chump tab