Guitaretab - guitar tabs
Song name
# A B C D E F G H I J K L M N O P Q R S T U V W X Y Z

Green Day - Jackass tab

----------------------------------------------------------------------------
			     JACKASS - GREEN DAY
----------------------------------------------------------------------------Tabbed by:pedro
Email: pedro_blg@hotmail.com 
Album: warning
Track: 9

Play the intro with a soft clean
Intro:
e|--0-0---0-0---0--0-0-0-0-------------------------------------------------|
B|--1-1---1-1---1--1-1-1-1-------------------------------------------------|
G|--0-0---0-0---2--2-2-2-2-------------------------------------------------|
D|--2-2---0-0---2--2-2-2-2-------------------------------------------------|
A|--3-3---2-2---0--0-0-0-0-------------------------------------------------|
E|--0-0---0-0---0--0-0-0-0-------------------------------------------------|
    C     B     am

Kick into a good distortion to the end
Bridge:
e|-------------------------------------------------------------------------|
B|-------------------------------------------------------------------------|
G|-----7-7-7-7-------------------------------------------------------------|
D|-----7-7-7-7-------------------------------------------------------------|
A|-----5-55-5-------------------------------------------------------------|
E|-------------------------------------------------------------------------|

Pre-verse:
e|-------------------------------------------------------------------------|
B|-------------------------------------------------------------------------|
G|------------------55----------------------------------------------------|
D|--5-5-5-5---3-3---55----------------------------------------------------|
A|--5-5-5-5---3-3---33----------------------------------------------------|
E|--3-3-3-3---1-1----------------------------------------------------------|

Verse:
e|-------------------------------------------------------------------------|
B|-------------------------------------------------------------------------|
G|----------------------------------------------7---7--7-------------------|
D|-----5-5-5-5-5-5-5-5-5-5-5-5-5-5-5-5-5--------7---7--7-------------------|
A|-----5-5-5-5-5-5-5-5-5-5-5-5-5-5-5-5-5--------5---5--5-------------------|
E|-----3-3-3-3-3-3-3-3-3-3-3-3-3-3-3-3-3-----------------------------------|
       To know you is to hate... suicide.

e|--0-0---0-0-----0--0-0-0-0-----------------------------------------------|
B|--1-1---1-1-----1--1-1-1-1-----------------------------------------------|
G|--0-0---0-0-----2--2-2-2-2--------------7-7-7-7-7-7-7--------------------|
D|--2-2---0-0-----2--2-2-2-2--------------7-7-7-7-7-7-7--------------------|
A|--3-3---2-2-----0--0-0-0-0--------------5-5-5-5-5-5-5--------------------|
E|--0-0---0-0-----0--0-0-0-0-----------------------------------------------|
   Well i dont    mind______
   If you dont    mind______
   I am   not the one that...             die________

Chorus:
e|-0000000000000-----2222222222222----3333333333333----3333333333333-------|
B|-0000000000000-----3333333333333----3333333333333----3333333333333-------|
G|-0000000000000-----4444444444444----5555555555555----4444444444444-------|
D|-2222222222222-----4444444444444----5555555555555----5555555555555-------|
A|-2222222222222-----2222222222222----3333333333333----5555555555555-------|
E|-0000000000000-----2222222222222----3333333333333----3333333333333-----2-|
   Em                bm               C                G	
   well everybody... noone likes...   you're always... again.

[ Tab from: http://www.guitaretab.com/g/green-day/121296.html ]
e|-0000000000000-----2222222222222----3333333333333----5555555555555-------|
B|-0000000000000-----3333333333333----3333333333333----5555555555555-------|
G|-0000000000000-----4444444444444----5555555555555----7777777777777-------|
D|-2222222222222-----4444444444444----5555555555555----7777777777777-------|
A|-2222222222222-----2222222222222----3333333333333----5555555555555-------|
E|-0000000000000-----2222222222222----3333333333333----5555555555555-------|
   Em                bm               C                D	
   You're well...    and that was...  but noone...     verity.


solo
e|-------------------------------------------------------------------------|
B|-------------------------------------------------------------------------|
G|-----------------5-5-------------------5-5-------------------------------|
D|-5-5-3-3---3-3---5-5---5-5-5-5---3-3---5-5-------------------------------|
A|-5-5-3-3---3-3---3-3---5-5-5-5---3-3---3-3-------------------------------|
E|-3-3-3-3---1-1---------3-3-33---1-1-------------------------------------|

e|-------------------------------------------------------------------------|
B|-------------------------------------------------------------------------|
G|-----------------5-5-------------------5-5-------------------------------|
D|-5-5-3-3---3-3---5-5---5-5-5-5---3-3---5-5-------------------------------|
A|-5-5-3-3---3-3---3-3---5-5-5-5---3-3---3-3-------------------------------|
E|-3-3-3-3---1-1---------3-3-33---1-1-------------------------------------|

e|-------------------------------------------------------------------------|
B|-------------------------------------------------------------------------|
G|-7-7-7-7---5-5---------7-7-7-7---5-5-------------------------------------|
D|-7-7-7-7---5-5---5-5---7-7-7-7---5-5---5-5-------------------------------|
A|-5-5-5-5---3-3---5-5---5-5-5-5---3-3---5-5-------------------------------|
E|-----------------3-3-------------------3-3-------------------------------|

e|-------------------------------------------------------------------------|
B|-------------------------------------------------------------------------|
G|-7-7-7-7---5-5---------7-7-7-7---5-5-------------------------------------|
D|-7-7-7-7---5-5---5-5---7-7-7-7---5-5---5-5-------------------------------|
A|-5-5-5-5---3-3---5-5---5-5-5-5---3-3---5-5-------------------------------|
E|-----------------3-3-------------------3-3-------------------------------|

Last verse:
e|-------------------------------------------------------------------------|
B|-------------------------------------------------------------------------|
G|----------------------------------------------7---7--7-------------------|
D|-----5-5-5-5-5-5-5-5-5-5-5-5-5-5-5-5-5--------7---7--7-------------------|
A|-----5-5-5-5-5-5-5-5-5-5-5-5-5-5-5-5-5--------5---5--5-------------------|
E|-----3-3-3-3-3-3-3-3-3-3-3-3-3-3-3-3-3-----------------------------------|
       To know you is to bait... denial.

e|--0-0---0-0-----0--0-0-0-0-----------------------------------------------|
B|--1-1---1-1-----1--1-1-1-1-----------------------------------------------|
G|--0-0---0-0-----2--2-2-2-2-----------------------------------------------|
D|--2-2---0-0-----2--2-2-2-2-----------------------------------------------|
A|--3-3---2-2-----0--0-0-0-0-----------------------------------------------|
E|--0-0---0-0-----0--0-0-0-0-----------------------------------------------|
   Well i dont    mind
   If you dont    mind

e|----0--------0-------0----0--------0-------------------------------------|
B|----1--------1-------1----1--------0-------------------------------------|
G|----0--------0-------2----2--------1-------------------------------------|
D|----2--------0-------2----2--------2-------------------------------------|
A|----3--------2-------0----0--------2-------------------------------------|
E|----0--------0-------0----0--------0-------------------------------------|
   If you're wasting  all  your    time

Intro x3
Bridge
Pre-verse x4
Verse x2
chorus
verse
chorus
solo
last verse


that'all folks!!it sounds perfec!!!i love playing this song with my band.
Check out my 86 guitar tab(vers 4)it sounds perfect too!!!
Enjoy it!!!

Any question and comment at:  pedro_blg@hotmail.com
Related for Jackass tab