Song name
# A B C D E F G H I J K L M N O P Q R S T U V W X Y Z

Green Day - 21st Century Breakdown tab

*21st Century Breakdown*

Tabbed by Stanislas Minkendorfer*

Gtr 1 and 2: capo on fourth fret
Accordage without capo: G# C# F# B D# G#


Intro (Gtr 1)

e|-------------------------------------------------------------------------------------|
B|--2~----------------------------------------2~---------------------------------------|
G|--2~------1~--------------------------------2~-----1~--------------------------------|
D|--2~------2~--------------------------------2~-----2~--------------------------------|
A|--0~------2~--------------------------------0~-----2~--------------------------------|
E|----------0~---------------------------------------0~--------------------------------|

(Gtr 2)

e|--0----0---------0------0----0-------0------0----0--------0------0----0-------0------|
B|----------0----0---0-----------0---0---0-----------0----0---0-----------0---0---0----|
G|-------------------------------------------------------------------------------------|
D|-------------------------------------------------------------------------------------|
A|-------------------------------------------------------------------------------------|
E|-------------------------------------------------------------------------------------|

Tap to rate this tab
# A B C D E F G H I J K L M N O P Q R S T U V W X Y Z