Song name
# A B C D E F G H I J K L M N O P Q R S T U V W X Y Z

Green Day - Espoinage tab

intro/part 1
e|-0~------------------------------------|
b|-0~------------------------------------|
g|-2~------------------------------------|
d|-2~------------------------------------|
a|-0~--------2-2--1-1-1-0--0-0-----------|
E|-0~-0-0-3-3----3--------3----3-2-------|

secound part of intro
e|---------------------------------------|
b|---------------------------------------|
g|---------------------------------------|
d|--------2-2--1-1-1-0-0-0---------------|
a|-0-0-3-3----3-------3---3-2------------|
E|---------------------------------------|

thats all any questions or comments e-mail me at mikeneely@yahoo.com
Tap to rate this tab
# A B C D E F G H I J K L M N O P Q R S T U V W X Y Z