Song name
# A B C D E F G H I J K L M N O P Q R S T U V W X Y Z

Green Day - Know Your Enemy tab

Help us improve GuitareTab! Take a short survey!
e|--------------------------------------11-----------------------------------|
B|-12-12-12-----12-12----------12----12----12------12-12-12----12-12-12------|
G|----------11--------11-11-11----11----------11~-----------11----------11---|
D|---------------------------------------------------------------------------|
A|---------------------------------------------------------------------------|
E|---------------------------------------------------------------------------|

e|------------------------------------------------------------11-------------|
B|-14-14-14----14-14---14-12-12-12----12-12----------12----12----12----------|
G|----------11-------11------------11-------11-11-11----11----------11~------|
D|---------------------------------------------------------------------------|
A|---------------------------------------------------------------------------|
E|---------------------------------------------------------------------------|

e|---------------------------------------------------------------------------|
B|--12-12-12----12-12-12----14-14-14----14-14----14~-------12---12-----------|
G|-----------11----------11----------11-------11-------9-9----9----9-8-4-----|
D|---------------------------------------------------------------------------|
A|---------------------------------------------------------------------------|
E|---------------------------------------------------------------------------|

e|-------7-------------------------------7-----------------------------------|
B|---7-----7---------12---12---------7-----7---------12---12---------7-------|
G|-4---4-----4~--9-9----9----9-8-4--4--4-----4~--9-9----9----9-8-4-4---4-----|
D|---------------------------------------------------------------------------|
A|---------------------------------------------------------------------------|
E|---------------------------------------------------------------------------|

e|-7-------------------------------------------------------------------------|
B|---7------7~---------------------------------------------------------------|
G|-----4~--------------------------------------------------------------------|
D|---------------------------------------------------------------------------|
A|---------------------------------------------------------------------------|
E|---------------------------------------------------------------------------|

Related for Know Your Enemy tab