Song name
# A B C D E F G H I J K L M N O P Q R S T U V W X Y Z

Green Day - Viva La Gloria tab

Green Day - !Viva La Gloria! (Cover by Leigh Bucknall)

You can listen to the song here:
http://www.youtube.com/watch?v=LQSGY6hFEd0

Ending is a little messed up.


Capo on 4th fret

Intro:
C - Em - F - C

C          Em
  Hey Gloria
        F                     G         C
Are you standing close to the edge?
               Em              F
Lookout to the setting sun
                  G          C
The brink of your vision
        Em
Eternal youth is
  F                G         C
A landscape of the lie
                 Em               F
The cracks of my skin can prove
                  G          C
As the years will testify
         Em                       F
Say your prayers and light a fire
                       G     C
We're going to start a war
               Em            F
Your slogans a gun for hire
             G               C
It's what we waited for
         Em
Hey Gloria,
        F                G      C
This is why we're on the edge
                 Em
The fight of our lives been drawn to
     F       C
This undying love.


Chorus:
|------------------------------------------------------------------------------------------------|
|------------------------------------------------------------------------------------------------|
|-5-5-5-5-5-5-5-5--------------------------------------------------------------------------------|
|-5-5-5-5-5-5-5-5-------2-2-2-2-2-2-2-2------7-7-7-7-7-7-7-7-----3-3-3-3-3-3-3-3-3-3-3-3-3-3-3-3-|
|-3-3-3-3-3-3-3-3-------2-2-2-2-2-2-2-2------7-7-7-7-7-7-7-7-----3-3-3-3-3-3-3-3-3-3-3-3-3-3-3-3-|
|-----------------------0-0-0-0-0-0-0-0------5-5-5-5-5-5-5-5-----1-1-1-1-1-1-1-1-1-1-1-1-1-1-1-1-|

------------------------------------------------------------------------|
------------------------------------------------------------------------|
------------------------------------------------------------------------|
--2-2--5-5--7-7-7---------3-3-3-3-3-3-3-3-------5-5-5-5-5-5-5-5---------|
--2-2--5-5--7-7-7---------3-3-3-3-3-3-3-3-------5-5-5-5-5-5-5-5---------|
--0-0--3-3--5-5-5---------1-1-1-1-1-1-1-1-------3-3-3-3-3-3-3-3---------|x2


Verse:
|------------------------------------------------------------|
|------------------------------------------------------------|
|--5-5-x-5-5-x-5-5-x-5-5-5-----------------------------------|
|--5-5-x-5-5-x-5-5-x-5-5-5----2-2-x-2-2-x-2-2-x-2-2-2-2-2----|
|--3-3-x-3-3-x-3-3-x-3-3-3----2-2-x-2-2-x-2-2-x-2-2-2-2-2----|
|-----------------------------0-0-x-0-0-x-0-0-x-0-0-0-0-0----|

---------------------------------------------------------|
---------------------------------------------------------|
---------------------------------------------------------|
--3-3-x-3-3-x-3-3-x-3-3-3----5-5-x-5-5-x-5-5-x-5-5-5-----|
--3-3-x-3-3-x-3-3-x-3-3-3----5-5-x-5-5-x-5-5-x-5-5-5-----|
--1-1-x-1-1-x-1-1-x-1-1-1----3-3-x-3-3-x-3-3-x-3-3-3-----|   x2


----------------------|
----------------------|
----------------------|
---2-2-3--3-5-5-5-----|
---2-2-3--3-5-5-5-----|
---0-0-1--1-3-3-3-----|
So don't put away....


Chorus x2


Ending:
|-------------------------------|
|--------------------------7----|
|--3--5-----3--5-----3--5--5----|
|--3--5-----3--5-----3--5--5----|
|--1--3-----1--3-----1--3-------|                        x2
So Gloria.....


|---------|
|---------|
|--5------|
|--5------|
|--3------|
|---------|        x4
Tap to rate this tab
 
# A B C D E F G H I J K L M N O P Q R S T U V W X Y Z