Song name
# A B C D E F G H I J K L M N O P Q R S T U V W X Y Z

Green Day - The Static Age tab

The Static Age - Green Day

One Of The Harder Songs To Tab Out Off The New Album But I'm Fairly Certain It's All Correct.
All Comments And Corrections Appreciated

*Note* In The 2nd And Final Chorus', In The Last Bar Of The Chorus On The Final Repeat, The Note
Is Continued x16 Instead Of Playing It x8 And Then 442 Or 775 x8. I Know That Sounds Confusing But
I Can't Think Of A Clearer Way To Put It

I. Verse x3
Gtr 1
e|-------------------------------------------------------------------|
B|-------------------------------------------------------------------|
G|--4-4-4-4-4-4-4-4-4-4-4-4-4-4-4-4-4-4-4-4-4-4-4-4-4-4-4-4-4-4-4-4--|
D|-------------------------------------------------------------------|
A|--2-2-2-2-2-2-2-2-2-2-2-2-2-2-2-2-2-2-2-2-2-2-2-2-2-2-2-2-2-2-2-2--|
E|-------------------------------------------------------------------|

e|-------------------------------------------------------------------|
B|-------------------------------------------------------------------|
G|--4-4-4-4-4-4-4-4-4-4-4-4-4-4-4-4-4-4-4-4-4-4-4-4-3-3-3-3-3-3-3-3--|
D|-------------------------------------------------------------------|
A|--2-2-2-2-2-2-2-2-2-2-2-2-2-2-2-2-2-2-2-2-2-2-2-2-1-1-1-1-1-1-1-1--|
E|-------------------------------------------------------------------|

Gtr 2
e|-------------------------------------------------------------------|
B|-------------------------------------------------------------------|
G|--4-4-4-4-4-4-4-4-4-4-4-4-4-4-4-4-9-9-9-9-9-9-9-9-6-6-6-6-6-6-9-9--|
D|-------------------------------------------------------------------|
A|--2-2-2-2-2-2-2-2-2-2-2-2-2-2-2-2-7-7-7-7-7-7-7-7-4-4-4-4-4-4-7-7--|
E|-------------------------------------------------------------------|

e|-------------------------------------------------------------------|
B|-------------------------------------------------------------------|
G|--8-8-8-8-8-8-8-8-8-8-8-8-8-8-8-8-9-9-9-9-9-8-9-91111111111111111--|
D|-------------------------------------------------------------------|
A|--6-6-6-6-6-6-6-6-6-6-6-6-6-6-6-6-7-7-7-7-7-6-7-7-9-9-9-9-9-9-9-9--|
E|-------------------------------------------------------------------|

II. Pre-Chorus
Gtr 1
e|-------------------------------------------------------------------|
B|-------------------------------------------------------------------|
G|-------------------------------------------------------------------|
D|--4-4-3-----------4-4-3-4-4-4-4-4-4-4-4-4-4-4-4-4-4-4-4-4-4-4-4-4--|
A|--4-4-3-----------4-4-3-4-4-4-4-4-4-4-4-4-4-4-4-4-4-4-4-4-4-4-4-4--|
E|--2-2-1-----------2-2-1-2-2-2-2-2-2-2-2-2-2-2-2-2-2-2-2-2-2-2-2-2--|
                            : : : : : : : : : : : : : : : : : : : :                      
Gtr 2
e|-------------------------------------------------------------------|
B|-------------------------------------------------------------------|
G|-1111111111111111111111111111111111111111111111111111111111111111--|
D|-------------------------------------------------------------------|
A|--9-9-9-9-9-9-9-9-9-9-9-9-9-9-9-9-9-9-9-9-9-9-9-9-9-9-9-9-9-9-9-9--|
E|-------------------------------------------------------------------|

III. Chorus
Gtr 1
e|-----------------------------------|    |-----------------------------------|
B|-----------------------------------| x3 |-----------------------------------|
G|--4-4-4-4-4-4-4-4-4-4-4-4-3-3-3-3--|    |--8-8-8-8-8-8-8-8------------------|
D|-----------------------------------|    |------------------4-4-4-4-4-4-4-4--|
A|--2-2-2-2-2-2-2-2-2-2-2-2-1-1-1-1--|    |--6-6-6-6-6-6-6-6-4-4-4-4-4-4-4-4--|
E|-----------------------------------|    |------------------2-2-2-2-2-2-2-2--|

Gtr 2
e|-----------------------------------|    |-----------------------------------|
B|-----------------------------------| x3 |-----------------------------------|
G|--4-4-4-4-4-4-4-4-9-9-9-9----------|    |--4-4-4-4-4-4-4-4------------------|
D|--4-4-4-4-4-4-4-4-9-9-9-9-4-4-4-4--|    |--4-4-4-4-4-4-4-4-4-4-4-4-4-4-4-4--|
A|--2-2-2-2-2-2-2-2-7-7-7-7-4-4-4-4--|    |--2-2-2-2-2-2-2-2-4-4-4-4-4-4-4-4--|
E|--------------------------2-2-2-2--|    |------------------2-2-2-2-2-2-2-2--|

IV. Repeat Verse

V. Repeat Pre-Chorus

VI. Repeat Chorus x2

VII. Bridge
Both Guitars
e|-------------------------------------------------------------------|
B|-------------------------------------------------------------------|
G|--9-9-9-9-9-9-9-9-9-9-9-9-9-9-9-9-4-4-4-4-4-4-4-4-4-4-4-4-4-4-4-4--|
D|-------------------------------------------------------------------|
A|--7-7-7-7-7-7-7-7-7-7-7-7-7-7-7-7-2-2-2-2-2-2-2-2-2-2-2-2-2-2-2-2--|
E|-------------------------------------------------------------------|

e|-------------------------------------------------------------------|
B|-------------------------------------------------------------------|
G|--9-9-9-9-9-9-9-9-9-9-9-9-9-9-9-91111111111-9-11-1212121212121212--|
D|-------------------------------------------------------------------|
A|--7-7-7-7-7-7-7-7-7-7-7-7-7-7-7-7-9-9-9-9-9-7--9-1010101010101010--|
E|-------------------------------------------------------------------|

VIII. Solo
Gtr 1
e|-------------------------------------------------------------------|
B|-------------------------------------------------------------------| x5
G|--5-5-5-5-5-5-5-5-5-5-5-5-5-5-5-5----------------------------------|
D|--5-5-5-5-5-5-5-5-5-5-5-5-5-5-5-5-3-3-3-3-3-3-3-3-5-5-5-5-5-5-5-5--|
A|--3-3-3-3-3-3-3-3-3-3-3-3-3-3-3-3-3-3-3-3-3-3-3-3-5-5-5-5-5-5-5-5--|
E|----------------------------------1-1-1-1-1-1-1-1-3-3-3-3-3-3-3-3--|

Gtr 2
e|-------------------------------------------------------------------|\
B|-------------------------------------------------------------------| \
G|--5-5-5-5-5-5-5-5-5-5-5--9--7--5-1010101010101010-7-7-7-7-7-71010--|  \
D|-------------------------------------------------------------------|   \
A|--3-3-3-3-3-3-3-3-3-3-3--7--5--3--8-8-8-8-8-8-8-8-5-5-5-5-5-5-8-8--|    \
E|-------------------------------------------------------------------|     \
                                                                     |     x2
e|-------------------------------------------------------------------|     /
B|-------------------------------------------------------------------|    /
G|--9-9-9-9-9-9-9-9-9-9-9--9--7--5-1010101010-9-10-1212121212121212--|   /
D|-------------------------------------------------------------------|  /
A|--7-7-7-7-7-7-7-7-7-7-7--7--5--3--8-8-8-8-8-7--8-1010101010101010--| /
E|-------------------------------------------------------------------|/

e|-----------------------------------------------------|
B|-----------------------------------------------------|
G|--1313131313131313141414141515151516161717181819/20--|
D|-----------------------------------------------------|
A|--1111111111111111121212121313131314141515161617/18--|
E|-----------------------------------------------------|

IX. Adlib
Gtr 1
e|-------------------------------------------------------------------|
B|-------------------------------------------------------------------| x4
G|--7-7-7-7-7-7-7-7-7-7-7-7-7-7-7-7-7-7-7-7-7-7-7-7-------------8-8--|
D|--7-7-7-7-7-7-7-7-7-7-7-7-7-7-7-7-7-7-7-7-7-7-7-7-7-7-7-7-7-7-8-8--|
A|--5-5-5-5-5-5-5-5-5-5-5-5-5-5-5-5-5-5-5-5-5-5-5-5-7-7-7-7-7-7-6-6--|
E|--------------------------------------------------5-5-5-5-5-5------|

Gtr 2
e|-------------------------------------------------------------------|\
B|-------------------------------------------------------------------| \
G|-111111111111111111111111111111111212121212121212-9-9-9-9-9-91212--|  \
D|-------------------------------------------------------------------|   \
A|--9-9-9-9-9-9-9-9-9-9-9-9-9-9-9-91010101010101010-7-7-7-7-7-71010--|    \
E|-------------------------------------------------------------------|     \
                                                                           x2
e|-------------------------------------------------------------------|     /
B|-------------------------------------------------------------------|    /
G|-1111111111111111111111111111111112121212121211121414141414141414--|   /
D|-------------------------------------------------------------------|  /
A|--9-9-9-9-9-9-9-9-9-9-9-9-9-9-9-9101010101010-9101212121212121212--| /
E|-------------------------------------------------------------------|/

X. Pre-Chorus
Gtr 1
e|-------------------------------------------------------------------|
B|-------------------------------------------------------------------|
G|-------------------------------------------------------------------|
D|--7-7-6-----------7-7-6-7-7-7-7-7-7-7-7-7-7-7-7-7-7-7-7-7-7-7-7-7--|
A|--7-7-6-----------7-7-6-7-7-7-7-7-7-7-7-7-7-7-7-7-7-7-7-7-7-7-7-7--|
E|--5-5-4-----------5-5-4-5-5-5-5-5-5-5-5-5-5-5-5-5-5-5-5-5-5-5-5-5--|
                            : : : : : : : : : : : : : : : : : : : :   
Gtr 2
e|-------------------------------------------------------------------|
B|-------------------------------------------------------------------|
G|-1414141414141414141414141414141414141414141414141414141414141414--|
D|-------------------------------------------------------------------|
A|-1212121212121212121212121212121212121212121212121212121212121212--|
E|-------------------------------------------------------------------|

XI. Chorus x4
Gtr 1
e|-----------------------------------|    |-----------------------------------|
B|-----------------------------------| x3 |-----------------------------------|
G|--7-7-7-7-7-7-7-7-7-7-7-7-6-6-6-6--|    |-1111111111111111------------------|
D|-----------------------------------|    |------------------7-7-7-7-7-7-7-7--|
A|--5-5-5-5-5-5-5-5-5-5-5-5-4-4-4-4--|    |--9-9-9-9-9-9-9-9-7-7-7-7-7-7-7-7--|
E|-----------------------------------|    |------------------5-5-5-5-5-5-5-5--|

Gtr 2
e|-----------------------------------|    |-----------------------------------|
B|-----------------------------------| x3 |-----------------------------------|
G|--7-7-7-7-7-7-7-7------------------|    |--7-7-7-7-7-7-7-7------------------|
D|--7-7-7-7-7-7-7-7-5-5-5-5-7-7-7-7--|    |--7-7-7-7-7-7-7-7-7-7-7-7-7-7-7-7--|
A|--5-5-5-5-5-5-5-5-5-5-5-5-7-7-7-7--|    |--5-5-5-5-5-5-5-5-7-7-7-7-7-7-7-7--|
E|------------------3-3-3-3-5-5-5-5--|    |------------------5-5-5-5-5-5-5-5--|

XII. outro
Both Guitars
e|------------------------------------|
B|------------------------------------|
G|--3-3-3-3-3-3-3-5-5-5-5-5-5-5-5-7~--|
D|--3-3-3-3-3-3-3-5-5-5-5-5-5-5-5-7~--|
A|--1-1-1-1-1-1-1-3-3-3-3-3-3-3-3-5~--|
E|------------------------------------|
Tap to rate this tab
# A B C D E F G H I J K L M N O P Q R S T U V W X Y Z