Song name
# A B C D E F G H I J K L M N O P Q R S T U V W X Y Z

Green Day - Walking Alone tab

e|---------------------------------------------------------------------------|
B|--8----------------------------------------------------10------------------|
G|-----7-----9b---------9------12------9----------12----------11-------------|
D|--------9------9--10-----10------10-----10--12------12----------12---------|
A|---------------------------------------------------------------------------|
E|---------------------------------------------------------------------------|

e|---------------------------------------------------------------------------|
B|--8-----------------------------------------------------10-----------------|
G|-----7-----9b---------9------12------9----------12----------11-------------|
D|--------9------9--10-----10------10-----10--12------12----------12---------|
A|---------------------------------------------------------------------------|
E|---------------------------------------------------------------------------|
Tap to rate this tab
# A B C D E F G H I J K L M N O P Q R S T U V W X Y Z