Guitaretab - guitar tabs
Song name
# A B C D E F G H I J K L M N O P Q R S T U V W X Y Z

Green Day - 21 Guns Acoustic tab

----------------------------------------------------------------------------
			     21 GUNS - GREEN DAY
----------------------------------------------------------------------------
Tabbed by:g3n3r4l5464
Email:

Tuning: down half step

      just a easy way to play the song solo with just an acoustic guitar.

 intro
e|-1---------5--------------------------------------------------------------|
B|-----3---------5----------------------------------------------------------|
G|--------------------------------------------------------------------------|
D|--------------------------------------------------------------------------|
A|--------------------------------------------------------------------------|
E|--------------------------------------------------------------------------|

  verse
e|-1--1---0----------------0--0-------------0--------------------------------|
B|-3--3---0--3-----3---0---1--1--0----------1--------------------------------|
G|-2--2---0--3-----3---0---2--2--0---0--0---0--0-----------------------------|
D|-----------3-----3---0---3--3--0---2--2---2--0-----------------------------|
A|-----------1-----1-----------------3--3---3--------------------------------|
E|---------------------------------------------------------------------------|

[ Tab from: http://www.guitaretab.com/g/green-day/190959.html ]
  chorus
e|----------------1--1-----0--0--0-0----------------------0-0-0-0-0-0-------|
B|----------------3--3-----1--1--1-1----------------------1-1-1-1-1-1-------|
G|----------------2--2--0--0--0--0-0----------------------0-0-0-0-0-0-------|
D|----------------0--0--0--2--2--2-2---3-3-3-3------------2-2-2-2-2-2-------|
A|-3-3-x--3-3-x---------0--3--3--3-3---1-1-1-1--3-3-3-3---3-3-3-3-3-3-------|
E|-1-1-x--0-0-x---------------------------------1-1-1-1---------------------|


  post chorus/pre verse
e|--------------------0-----------------------------------------------------|
B|--------------------1-----------------------------------------------------|
G|--------------------0-----------------------------------------------------|
D|-3-3-3-3------------2-----------------------------------------------------|
A|-1-1-1-1--3-3-3-3---3-----------------------------------------------------|
E|----------1-1-1-1---------------------------------------------------------|


  bridge
e|--------------------------------------------------------------------------|
B|--------------------------------------------------------------------------|
G|--------------------------------------------------------------------------|
D|-7-7-x-----------------5-5-5-5---7-7-x------------------------------------|
A|-5-5-x--8-8-x--3-3-x---3-3-3-3---5-5-x--8-8-x--3-3-3-3/-7-7-7-7-----------|
E|--------6-6-x--1-1-x--------------------6-6-x--1-1-1-1/-5-5-5-5-----------|

e|--------------------------------------------------------------------------|
B|--------------------------------------------------------------------------|
G|--------------------------------------------------------------------------|
D|-7-7-x--------------------------------------------------------------------|
A|-5-5-x--8-8-x--3-3-3-3/-7-7-7-7/-8-8-8-8-8-8/-101010101010----------------|
E|--------6-6-x--1-1-1-1/-5-5-5-5/-6-6-6-6-6-6/-8-8-8-8-8-8-----------------|


  enjoy

| /  slide up
| x  Mute note
============================================================================
Related for 21 Guns Acoustic tab
×
Best way to learn
"21 Guns Acoustic"