Song name
# A B C D E F G H I J K L M N O P Q R S T U V W X Y Z

Green Day - Last Ride In tab

  Last Ride in Tab
this is one of my first tabs so take it easy and any question you know who to 
or send an invite to triggerhappy778@youtube.com

this probably is best on light distortion


intro(let it ring)
e[----------------------------------------------------|
bI---4------------------------------------------------|I
g|---4------------------------------------------------|
d|---4------------------------------------------------|
a|---2------------------------------------------------|
E|----------------------------------------------------|I

play this 4x
e----------------------------------------------------------------|I
bI---------------------------------------------------------------|I
g|---------------------------------------------------------------|
d|---------------------------------------------------------------|
a|-2-----2--0------2-4--4-0-2----2----2--0--2--4-------4--2------|
E|----2----------------------------4---------------2-------------|

Chorus
e|-----0--------------------0-----------------------0------------------------|
b|--------0--------------------0-----------------------0---------------------|
g|-----------1---------------------1----------------------1----------4--3----|
d|-2------------2--4----2----- -------0--4-----2-------------0-0-0-4---------|
a|-2------------2--4----2-------------0--4-----2-------------2-2-2-4---------|
e|-0------------0--2----0-------------2--2-----0-------------2-2-2-2---------|

2nd Verse(guitar 1)   play this with i guitar
e----------------------------------------------------------------|I
bI---------------------------------------------------------------|I
g|---------------------------------------------------------------|
d|---------------------------------------------------------------|
a|-2-----2--0------2-4--4-0-2----2----2--0--2--4-------4--2------|
E|----2----------------------------4---------------2-------------|

 guitar 2 then after a bit play this wit another guitar
e----------------------------------------------------------------|I
bI---22/---44----55-4---2----2/4---------------------------------|I
g|---22/---44----66-4---2----2/4---------------------------------|
d|---------------------------------------------------------------|
a|---------------------------------------------------------------|
E|---------------------------------------------------------------|I

Here's the rest.
Chorus
#3rd Verse
Chorus
Outro:      guitar 1
e----------------------------------------------------------------|I
bI---------------------------------------------------------------|I
g|---------------------------------------------------------------|
d|---------------------------------------------------------------|
a|-2-----2--0------2-4--4-0-2----2----2--0--2--4-------4--2------|
E|----2----------------------------4---------------2-------------|
             guitar 2
e-----------------------------------------------------------------|I
bI---22/---44----55-4---2----2/4----------------------------------|I
g|---22/---44----66-4---2----2/4----------------------------------|
d|----------------------------------------------------------------|
a|-------------------------------------------------------2--------|let ring!
E|----------------------------------------------------------------|I


that's about it. for questions go to plsmith313@gmail.com.
also send a you tube invite to triggerhappy778@youtube.com

P.S. you'll have to listen to the song yourself. there's only so much i can put in writing.
Tap to rate this tab
# A B C D E F G H I J K L M N O P Q R S T U V W X Y Z