Song name
# A B C D E F G H I J K L M N O P Q R S T U V W X Y Z

Green Day - Green Day tab

submitted by: morpher910@gmail.com
date submitted: october 11, 2009
artist: green day
song: green day
album: 39/smooth

ok so nobody has the solo right on anything so this is the correct version.

e|-----------------------------------------------|
b|-----------------------------------------------|
g|---4-4-4-4-4-4-6--4-4-2/1-1h2-1----------------|
d|-----------------------------------4-2-4~~-----|
a|-----------------------------------------------|
e|-----------------------------------------------|

e|-----------------------------------0-----------|
b|-----------0-0-0-0-0-0-0-0-0-----0---0---------|
g|-----------2-2-2-2-2-2-2-1-1-1/2-------2\1-1-1-|
d|-4-4-4-4-4-2-2-2-2-2-2-2-2-2---------------2-2-|
a|-4-4-4-4-4-0-0-0-0-0-0-0-2-2---------------2-2-|
e|-2-2-2-2-2---------------0-0---------------0-0-|

e|-----------------------------------------------|
b|-----------------------------------------------|
g|---4-4-4-4-4-4-6--4-4-2/1-1h2-1----------------|
d|-----------------------------------4-2-4~~-----|
a|-----------------------------------------------|
e|-----------------------------------------------|

h= hammer on
p= pull off
~= let ring out
/= slide

if you have any questions email me at morpher910@gmail.com
Tap to rate this tab
 
# A B C D E F G H I J K L M N O P Q R S T U V W X Y Z