Song name
# A B C D E F G H I J K L M N O P Q R S T U V W X Y Z

Green Day - Know Your Enemy tab

Hey guys!! This is my first tab, plz no bad comments, corrections at gvk047@hotmail.com. Enjoy!!

Band: Green Day
Song: Know Your Enemy
Album: 21st Century Breakdown

Legend:
/= Slide
X= Mute
~= Vibrato

\/ Lead Guitar \/

INTRO: Drums + Lead Guitar + Vocals.

e-----------------------------------------------------------------------------|
B-----------------------------------------------------------------------------|
G----------9-9-------------9-9-----------9-9-------------9-9------------------|
D-13/4/9-9-9-9-9-9-X-X-9-9-9-9-9-9-7-9-9-9-9-9-9-X-X-9-9-9-9-9-9-7------------|
A-13/4/9-9-7-7-9-9-X-X-9-9-7-7-9-9-7-9-9-7-7-9-9-X-X-9-9-7-7-9-9-7------------|
E-11/2/7-7-----7-7-X-X-7-7-----7-7-5-7-7-----7-7-X-X-7-7-----7-7-5------------|

Vocals come in here.

e-----------------------------------------------------------------------------|
B-----------------------------------------------------------------------------|
G-----9-9-------------9-9-----------9-9---------------------------------------|
D-9-9-9-9-9-9-X-X-9-9-9-9-9-9-7-9-9-9-9-9-9-4-4-4-4-4-4-4---------------------|
A-9-9-7-7-9-9-X-X-9-9-7-7-9-9-7-9-9-7-7-9-9-4-4-4-4-4-4-4---------------------|
E-7-7-----7-7-X-X-7-7-----7-7-5-7-7-----7-7-2-2-2-2-2-2-2---------------------|

Vocals + Lead Guitar + Rhythm Guitar + Bass + Drums!!

e-----------------------------------------------------------------------------|
B-----------------------------------------------------------------------------|
G-------9-9-------------9-9-----------9-9-------------------------------------|
D-9-9-9-9-9-9-9-X-X-9-9-9-9-9-9-7-9-9-9-9-9-9-4-4-4-4-4-4-4-------------------|
A-9-9-9-7-7-9-9-X-X-9-9-7-7-9-9-7-9-9-7-7-9-9-4-4-4-4-4-4-4-------------------|
E-7-7-7-----7-7-X-X-7-7-----7-7-5-7-7-----7-7-2-2-2-2-2-2-2-------------------|

e-----------------------------------------------------------------------------|
B-----------------------------------------------------------------------------|
G-------9-9-------------9-9-----------9-9-------------------------------------|
D-9-9-9-9-9-9-9-X-X-9-9-9-9-9-9-7-9-9-9-9-9-9-4-4-4-4-4-4-4-------------------|
A-9-9-9-7-7-9-9-X-X-9-9-7-7-9-9-7-9-9-7-7-9-9-4-4-4-4-4-4-4-------------------|
E-7-7-7-----7-7-X-X-7-7-----7-7-5-7-7-----7-7-2-2-2-2-2-2-2-------------------|

VERSE: Vocals + Lead Guitar + Bass + Drums

e-----------------------------------------------------------------------------|
B-----------------------------------------------------------------------------|
G-------9-9-------------9-9-----------9-9-------------------------------------|
D-9-9-9-9-9-9-9-X-X-9-9-9-9-9-9-7-9-9-9-9-9-9-4-4-4-4-4-4-4-------------------|
A-9-9-9-7-7-9-9-X-X-9-9-7-7-9-9-7-9-9-7-7-9-9-4-4-4-4-4-4-4-------------------|
E-7-7-7-----7-7-X-X-7-7-----7-7-5-7-7-----7-7-2-2-2-2-2-2-2-------------------|

e-----------------------------------------------------------------------------|
B-----------------------------------------------------------------------------|
G-------9-9-------------9-9-----------9-9-------------------------------------|
D-9-9-9-9-9-9-9-X-X-9-9-9-9-9-9-7-9-9-9-9-9-9-4-4-4-4-4-4-4-------------------|
A-9-9-9-7-7-9-9-X-X-9-9-7-7-9-9-7-9-9-7-7-9-9-4-4-4-4-4-4-4-------------------|
E-7-7-7-----7-7-X-X-7-7-----7-7-5-7-7-----7-7-2-2-2-2-2-2-2-------------------|

e-----------------------------------------------------------------------------|
B-----------------------------------------------------------------------------|
G-------9-9-------------9-9-----------9-9-------------------------------------|
D-9-9-9-9-9-9-9-X-X-9-9-9-9-9-9-7-9-9-9-9-9-9-4-4-4-4-4-4-4-------------------|
A-9-9-9-7-7-9-9-X-X-9-9-7-7-9-9-7-9-9-7-7-9-9-4-4-4-4-4-4-4-------------------|
E-7-7-7-----7-7-X-X-7-7-----7-7-5-7-7-----7-7-2-2-2-2-2-2-2-------------------|

e-----------------------------------------------------------------------------|
B-----------------------------------------------------------------------------|
G-------9-9-------------9-9-----------9-9-------------------------------------|
D-9-9-9-9-9-9-9-X-X-9-9-9-9-9-9-7-9-9-9-9-9-9-4-4-4-4-4-4-4-------------------|
A-9-9-9-7-7-9-9-X-X-9-9-7-7-9-9-7-9-9-7-7-9-9-4-4-4-4-4-4-4-------------------|
E-7-7-7-----7-7-X-X-7-7-----7-7-5-7-7-----7-7-2-2-2-2-2-2-2-------------------|

CHORUS 1: Vocals + Lead Guitar + Rhythm Guitar + Bass + Drums

e-----------------------------------------------------------------------------|
B-----------------------------------------------------------------------------|
G-------9-9-------------9-9-----------9-9-------------------------------------|
D-9-9-9-9-9-9-9-X-X-9-9-9-9-9-9-7-9-9-9-9-9-9-4-4-4-4-4-4-4-------------------|
A-9-9-9-7-7-9-9-X-X-9-9-7-7-9-9-7-9-9-7-7-9-9-4-4-4-4-4-4-4-------------------|
E-7-7-7-----7-7-X-X-7-7-----7-7-5-7-7-----7-7-2-2-2-2-2-2-2-------------------|

e-----------------------------------------------------------------------------|
B-----------------------------------------------------------------------------|
G-------9-9-------------9-9-----------9-9-------------------------------------|
D-9-9-9-9-9-9-9-X-X-9-9-9-9-9-9-7-9-9-9-9-9-9-4-4-4-4-4-4-4-------------------|
A-9-9-9-7-7-9-9-X-X-9-9-7-7-9-9-7-9-9-7-7-9-9-4-4-4-4-4-4-4-------------------|
E-7-7-7-----7-7-X-X-7-7-----7-7-5-7-7-----7-7-2-2-2-2-2-2-2-------------------|

BRIDGE 1

e-----------------------------------------------------------------------------|
B-----12--------------------12----------12--------------------12--------------|
G-9-9----9-9-8-------11--------11---9-9----9-9-8-------11--------11-----------|
D--------------9-9-9----9-9-------9--------------9-9-9----9-9-------9---------|
A-----------------------------------------------------------------------------|
E-----------------------------------------------------------------------------|

e-----------------------------------------------------------------------------|
B----12--------------------12-------------------------------------------------|
G-9-9---9-9-8------11--------11---------4-4-------------4-4-------------------|
D------------9-9-9---9-9-------9----4-4-4-4-4-4-X-X-4-4-4-4-4-4-0-------------|
A-----------------------------------4-4-2-2-4-4-X-X-4-4-2-2-4-4-0-------------|
E-----------------------------------2-2-----2-2-X-X-2-2-----2-2-0-------------|

SOLO!!!: Vocal + Lead Guitar + Rhythm Guitar + Bass + Drums

e-------------------------------11--------------------------------------------|
B-12-12-12---12-12--------12--12--12--12-12-12--12-12--12--14-14--14-14--14---|
G---------11------11-11-11--11------11--------11-----11--11-----11-----11--11-|
D-----------------------------------------------------------------------------|
A-----------------------------------------------------------------------------|
E-----------------------------------------------------------------------------|

e-------------------------------11--------------------------------------------|
B-12-12-12---12-12--------12--12--12--12-12-12--12-12--12--14-14--14-14--14---|
G---------11------11-11-11--11------11--------11-----11--11-----11-----11--11-|
D-----------------------------------------------------------------------------|
A-----------------------------------------------------------------------------|
E-----------------------------------------------------------------------------|

e-----------------------------------------------------------------------------|
B-----12--------------------12----------12--------------------12--------------|
G-9-9----9-9-8-------11--------11---9-9----9-9-8-------11--------11-----------|
D--------------9-9-9----9-9-------9--------------9-9-9----9-9-------9---------|
A-----------------------------------------------------------------------------|
E-----------------------------------------------------------------------------|

e-----------------------------------------------------------------------------|
B-----12--------------------12----------12--------------------12--------------|
G-9-9----9-9-8-------11--------11---9-9----9-9-8-------11--------11-----------|
D--------------9-9-9----9-9-------9--------------9-9-9----9-9-------9---------|
A-----------------------------------------------------------------------------|
E-----------------------------------------------------------------------------|

e-----------------------------------------------------------------------------|
B-----12--------------------12----------12--------------------12--------------|
G-9-9----9-9-8-------11--------11---9-9----9-9-8-------11--------11-----------|
D--------------9-9-9----9-9-------9--------------9-9-9----9-9-------9~~~~~~~~-|
A-----------------------------------------------------------------------------|
E-----------------------------------------------------------------------------|

BRIDGE 2: Vocals + Lead Guitar + Bass + Drums

e-----------------------------------------------------------------------------|
B-----------------------------------------------------------------------------|
G-----4-4-------------4-4-----------4-4-------------4-4-----------------------|
D-4-4-4-4-4-4-X-X-4-4-4-4-4-4-0-4-4-4-4-4-4-X-X-4-4-4-4-4-4-------------------|
A-4-4-2-2-4-4-X-X-4-4-2-2-4-4-0-4-4-2-2-4-4-X-X-4-4-2-2-4-4-------------------|
E-2-2-----2-2-X-X-2-2-----2-2-0-2-2-----4-4-X-X-2-2-----2-2-------------------|

Vocals come here

e-----------------------------------------------------------------------------|
B-----------------------------------------------------------------------------|
G-------4-4-------------4-4-----------4-4-------------4-4-----------4-4-------|
D-0-4-4-4-4-4-4-X-X-4-4-4-4-4-4-0-4-4-4-4-4-4-X-X-4-4-4-4-4-4-0-4-4-4-4-4-4---|
A-0-4-4-2-2-4-4-X-X-4-4-2-2-4-4-0-4-4-2-2-4-4-X-X-4-4-2-2-4-4-0-4-4-2-2-4-4---|
E-0-2-2-----2-2-X-X-2-2-----2-2-0-2-2-----2-2-X-X-2-2-----2-2-0-2-2-----2-2---|

e----------------------------------------------------------------------------|
B----------------------------------------------------------------------------|
G---------4-4-----------4-4--------------------------------------------------|
D-X-X-4-4-4-4-4-4-0-4-4-4-4-4-4-0-4-4-4-4-4-4-4------------------------------|
A-X-X-4-4-2-2-4-4-0-4-4-2-2-4-4-0-4-4-4-4-4-4-4------------------------------|
E-X-X-2-2-----2-2-0-2-2-----2-2-0-2-2-2-2-2-2-2------------------------------|

Stop vocals

e-----------------------------------------------------------------------------|
B-----------------------------------------------------------------------------|
G-------9-9-------------9-9-----------9-9-------------9-9---------------------|
D-9-9-9-9-9-9-9-X-X-9-9-9-9-9-9-7-9-9-9-9-9-9-X-X-9-9-9-9-9-9-7---------------|
A-9-9-9-7-7-9-9-X-X-9-9-7-7-9-9-7-9-9-7-7-9-9-X-X-9-9-7-7-9-9-7---------------|
E-7-7-7-----7-7-X-X-7-7-----7-7-5-7-7-----7-7-X-X-7-7-----7-7-5---------------|

Vocals

e-----------------------------------------------------------------------------|
B-----------------------------------------------------------------------------|
G-----9-9-------------9-9-----------9-9---------------------------------------|
D-9-9-9-9-9-9-X-X-9-9-9-9-9-9-7-9-9-9-9-9-9-4-4-4-4-4-4-4---------------------|
A-9-9-7-7-9-9-X-X-9-9-7-7-9-9-7-9-9-7-7-9-9-4-4-4-4-4-4-4---------------------|
E-7-7-----7-7-X-X-7-7-----7-7-5-7-7-----7-7-2-2-2-2-2-2-2---------------------|

CHORUS 2: Vocals + Lead Guitar + Rhythm Guitar + Bass + Drums

e-----------------------------------------------------------------------------|
B-----------------------------------------------------------------------------|
G-------9-9-------------9-9-----------9-9-------------------------------------|
D-9-9-9-9-9-9-9-X-X-9-9-9-9-9-9-7-9-9-9-9-9-9-4-4-4-4-4-4-4-------------------|
A-9-9-9-7-7-9-9-X-X-9-9-7-7-9-9-7-9-9-7-7-9-9-4-4-4-4-4-4-4-------------------|
E-7-7-7-----7-7-X-X-7-7-----7-7-5-7-7-----7-7-2-2-2-2-2-2-2-------------------|

e-----------------------------------------------------------------------------|
B-----------------------------------------------------------------------------|
G-------9-9-------------9-9-----------9-9-------------------------------------|
D-9-9-9-9-9-9-9-X-X-9-9-9-9-9-9-7-9-9-9-9-9-9-4-4-4-4-4-4-4-------------------|
A-9-9-9-7-7-9-9-X-X-9-9-7-7-9-9-7-9-9-7-7-9-9-4-4-4-4-4-4-4-------------------|
E-7-7-7-----7-7-X-X-7-7-----7-7-5-7-7-----7-7-2-2-2-2-2-2-2-------------------|

OUTRO: Vocal + Lead Guitar + Rhythm Guitar + Bass + Drums

e-------------------------------11--------------------------------------------|
B-12-12-12---12-12--------12--12--12--12-12-12--12-12--12--14-14--14-14--14---|
G---------11------11-11-11--11------11--------11-----11--11-----11-----11--11-|
D-----------------------------------------------------------------------------|
A-----------------------------------------------------------------------------|
E-----------------------------------------------------------------------------|

e-------------------------------11--------------------------------------------|
B-12-12-12---12-12--------12--12--12--12-12-12--12-12--12--14-14--14-14--14---|
G---------11------11-11-11--11------11--------11-----11--11-----11-----11--11-|
D-----------------------------------------------------------------------------|
A-----------------------------------------------------------------------------|
E-----------------------------------------------------------------------------|

End song like this: optional vibrato ;)

B-12(~~~~~~~~~~~~~~~~~~~~~~~~~~~~~~~~~~~~~~~~~~~~~~~~~~~)
Tap to rate this tab
 
# A B C D E F G H I J K L M N O P Q R S T U V W X Y Z