Song name
# A B C D E F G H I J K L M N O P Q R S T U V W X Y Z

Green Day - When I Come Around tab

Help us improve GuitareTab! Take a short survey!
When I Come Around
Album: "Dookie"

Main riff:
E|---------------------------|---------------------------||
B|---------------------------|---------------------------||
G|--------------------7------|------9-----5-------5--x-x-||
D|-------5------7--7--7--7-7-|9--9--9--9--5-------5--x-x-||
A|-5--5--5--5-5-5--5--5--5-5-|7--7--7--7--3-------3--x-x-||
E|-3--3--3--3-3--------------|---------------------------||


Chorus:
E|-----|-----|-----|-----------------||
B|-----|-----|-----|-----------------||
G|--2--|--5--|--2--|-555555555-------||
D|--2--|--5--|--2--|-555555555-------||
A|--0--|--3--|--0--|-333333333-------||
E|-----|-----|-----|-----------------||


Interlude:
E|-3-----------5-----------3--3-----5----3--3--3-3-3--3-3-5-|
B|----3-----3-----3-----3--3--3--3--3----3--3--3-3-3--3-3-3-|
G|-------0-----------0-----0--0--0--0----0--0--0-0-0--0-0-0-|
D|----------------------------------------------------------|
A|----------------------------------------------------------|
E|----------------------------------------------------------|

E|-5-5-5--3-3-3--3-3--------------------||
B|-3-3-3--3-3-3--3-3-----5--5--5--------||
G|-0-0-0--0-0-0--0-0-/4--4--4--5--------||
D|--------------------------------------||
A|--------------------------------------||
E|----------------------------------12\-||
Related for When I Come Around tab