Song name
# A B C D E F G H I J K L M N O P Q R S T U V W X Y Z

Green Day - All By Myself tab

Measure #1:
|2---2---2---2---|
|--3---3---3---3-|
|----------------|
|0---------------|
|----------------|
|----------------|

Measure #2:
|3---3---3---3---|
|--3---3---3---3-|
|0---------------|
|----------------|
|----------------|
|----------------|

Measure #3:
|4---4---4---4---|
|--5---5---5---5-|
|----------------|
|----------------|
|----------------|
|0---------------|

Measure #4:
|5---5---5---5---|
|--5---5---5---5-|
|----------------|
|----------------|
|0---------------|
|----------------|

Measure #5:
|5---5---5|
|--5---5--|
|---------|
|---------|
|0-------0|
|---------|

Play #1 and #2 - 7 times
Play #3 and #4 - 3 times
Play #3 and #5 - 1 time
Play #1 and #2 - 4 times
Play #3 and #4 - 3 times
Play #3 and #5 - 1 time

Jonny Toxik
Tap to rate this tab
# A B C D E F G H I J K L M N O P Q R S T U V W X Y Z