Song name
# A B C D E F G H I J K L M N O P Q R S T U V W X Y Z

Green Day - Tell Me When Its Time To Say I Love You tab

-------------------------------------------------------------------------------
			     When Its Time Solo  Green Day
-------------------------------------------------------------------------------
Tabbed by: Haz
Email: hazrold1@hotmail.com

Tuning: Standard

Let the notes ring into each other to get the same Green Day sound

e|3-----------2---------------2----------2----------------------------0-----0--|
B|---3-----3-----3-------5--------5--5-------5---0----5-------3----7------7---7|
G|------4------------4-----------------------------------5------4------7-----7-|
D|----------------------------------------------------------5-----5------------|x2 
A|-----------------------------------------------------------------------------|
E|-----------------------------------------------------------------------------|

It can be played differently but thats how I choose to play it.
Cheers, 
haz.
Tap to rate this tab
# A B C D E F G H I J K L M N O P Q R S T U V W X Y Z