Song name
# A B C D E F G H I J K L M N O P Q R S T U V W X Y Z

Green Day - Last Of The American Girls tab

-----------------------------------------------------------------------------
			     LAST OF THE AMERICAN GIRLS - GREEN DAY
-----------------------------------------------------------------------------
My first tab!

Tabbed by: lofters
Email: sean_kearney94@hotmail.com

Tuning: Standard (EADGBe)

--VERSE--

Starts on "She wears her overcoat"

Guitar 1 (Palm Muted)

e|-----------------------------------------------------------------------|
B|-----------------------------------------------------------------------|
G|-----------------------------------------------------------------------|
D|-----------------------------------------------------------------------|
A|---------------------------------7-7-7-7-7-7-7--7-6-6-7-7-9-9----------|
E|-7-7-7-7-7-7-7-7-7-7-7-7-7-7-7-7---------------------------------------|

Guitar 1 (Cont. Palm Mute)

e|-----------------------------------------------------------------------|
B|-----------------------------------------------------------------------|
G|-----------------------------------------------------------------------|
D|-----------------------------------------------------------------------|
A|---------------------------------9-9-9-9-9-9-9-9-9-9-9-9-9-9-----------|
E|-7-7-7-7-7-7-7-7-7-7-7-7-7-7-7-7---------------------------------------| x2

Guitar 2

e|-----------------------------------------------------------------------|
B|-----------------------------------------------------------------------|
G|------------------------------------9-9-9-9-9-9-9-9-9-9-9-9-9-9-9-9----|
D|---9-9-9-9-9-9-9-9-9-9-9-9-9-9-9-9--9-9-9-9-9-9-9-9-9-9-9-9-9-9-9-9----|
A|---9-9-9-9-9-9-9-9-9-9-9-9-9-9-9-9--7-7-7-7-7-7-7-7-7-7-7-7-7-7-7-7----|
E|---7-7-7-7-7-7-7-7-7-7-7-7-7-7-7-7-------------------------------------|
     . . . . . . . . . . . . . . . .  . . . . . . . . . . . . . . . . 

Guitar 2 (Cont.)

e|-----------------------------------------------------------------------|
B|-----------------------------------------------------------------------|
G|------------------------------------11-11-11-11-11-11-11-11-11-11-11---|
D|---9-9-9-9-9-9-9-9-9-9-9-9-9-9-9-9--11-11-11-11-11-11-11-11-11-11-11---|
A|---9-9-9-9-9-9-9-9-9-9-9-9-9-9-9-9--9-9-9-9-9-9-9-9-9-9-9-9-9-9-9-9----|
E|---7-7-7-7-7-7-7-7-7-7-7-7-7-7-7-7-------------------------------------| x2
     . . . . . . . . . . . . . . . .  . . . . . . . . . . . . . . . . 

--CHORUS--

Guitar 1

e|-----------------------------------------------------|
B|-----------------------------------------------------|
G|-----------------------------------------------------|
D|-99999999-77777777-66666666-55555555--99999999-4-4-4-|
A|-99999999-77777777-66666666-55555555--99999999-4-4-4-|
E|-77777777-55555555-44444444-33333333--77777777-2-2-2-|

Guitar 2

e|-----------------|------------------|------------------|------------------|
B|-1212121212121212|--1010101010101010|--9-9-9-9-9-12129-|--8-8-8-8-8-8-8-8-|
G|-----------------|------------------|------------------|------------------|
D|-9-9-9-9-9-9-9-9-|--7-7-7-7-7-7-7-7-|--6-6-6-6-6-9-9-6-|--5-5-5-5-5-5-5-5-|
A|-----------------|------------------|------------------|------------------|
E|-----------------|------------------|------------------|------------------|

Guitar 2 (Cont.)

e|-----------------|-------------------|
B|-1212121212121212|---7-7-7-----------|
G|-----------------|-------------------|
D|-9-9-9-9-9-9-9-9-|---4-4-4-----------|
A|-----------------|-------------------|
E|-----------------|-------------------|

--POST CHORUS--

Guitar 1

e|--------------------------------------|
B|--------------------------------------|
G|-----------9-9-9-9-----------9-9-9-9--|
D|--9-9-9-9--9-9-9-9--9-9-9-9--9-9-9-9--|    x2
A|--9-9-9-9--7-7-7-7--9-9-9-9--7-7-7-7--|
E|--7-7-7-7-----------7-7-7-7-----------|

Guitar 2

e|--------------------|-----------------|
B|--------------------|-----------------|
G|------11--1313--11--|-----11--1313--11|
D|--1313--13--------13|-1313--13--------|    x2
A|--------------------|-----------------|
E|--------------------|-----------------|

--VERSE 2--

Guitar 1

Same as Verse 1

Guitar 2

e|-r---------------|------------------|------2-2-r---2-2-|--r---2-2-r---2-2-|
B|-r---5-5-r---5-5-|--r---5-5-r---5-5-|--r---4-4-r---4-4-|--r---4-4-r---4-4-|
G|-r---4-4-r---4-4-|--r---4-4-r---4-4-|--r---4-4-r---4-4-|--r---4-4-r---4-4-|
D|-----2-2-r---2-2-|--r---2-2-r---2-2-|--r---------------|------------------|
A|-----------------|------------------|------------------|------------------|
E|-----------------|------------------|------------------|------------------|

e|-r---6-6-r---6-6-|--r---6-6-r---6-6-|--r---2-2-r---2-2-|--r---2-2-r---2-2-|
B|-r---7-7-r---7-7-|--r---7-7-r---7-7-|--r---4-4-r---4-4-|--r---4-4-r---4-4-|
G|-r---6-6-r---6-6-|--r---6-6-r---6-6-|--r---4-4-r---4-4-|--r---4-4-r---4-4-|
D|-----------------|------------------|------------------|------------------|
A|-----------------|------------------|------------------|------------------|
E|-----------------|------------------|------------------|------------------|

--SOLO--

Chorus x1 - Both Guitars
POST-CHORUS x1 - Both guitars

Guitar 1

e|-----------------|------------------|------------------|------------------|
B|------4--4-5-4---|-------4--4-5-4---|-------9--9-109---|-------9--9-109---|
G|-----4---------4-|------4---------4-|------9---------9-|------9---------9-|
D|---4----4--------|----4----4--------|----9----9--------|----9----9--------|
A|-----------------|------------------|------------------|------------------|
E|-----------------|------------------|------------------|------------------|

e|-----------------|------------------|---------------------------|
B|------4--4-5-4---|-------4--4-5-4---|----------4b3----------4b3-|
G|-----4---------4-|------4---------4-|------4------------4-------|
D|---4----4--------|----4----4--------|----4---4--------4---4-----|
A|-----------------|------------------|--4------------4-----------|    x2
E|-----------------|------------------|---------------------------|

Guitar 2 plays verse x2 underneath

then;

Guitar 1

e|--------------------------------------------------------------------------|
B|--------------------------------------------------------------------------|
G|--------------------------------------------------------------------------|
D|-99999999-77777777-66666666-55555555--99999999-77777777-44444444-88888888-|
A|-99999999-77777777-66666666-55555555--99999999-77777777-44444444-88888888-|
E|-77777777-55555555-44444444-33333333--77777777-55555555-22222222-66666666-|

e|-----------------------------------------------------|
B|-----------------------------------------------------|
G|-----------------------------------------------------|
D|-99999999-77777777-66666666-55555555--99999999-4-4-4-|
A|-99999999-77777777-66666666-55555555--99999999-4-4-4-|
E|-77777777-55555555-44444444-33333333--77777777-2-2-2-|

Guitar 2

e|-----------------|------------------|------------------|------------------|
B|-1212121212121212|--1010101010101010|--9-9-9-9-9-12129-|--8-8-8-8-8-8-8-8-|
G|-----------------|------------------|------------------|------------------|
D|-9-9-9-9-9-9-9-9-|--7-7-7-7-7-7-7-7-|--6-6-6-6-6-9-9-6-|--5-5-5-5-5-5-5-5-|
A|-----------------|------------------|------------------|------------------|
E|-----------------|------------------|------------------|------------------|

Guitar 2 (Cont.)

e|-----------------|-------------------|
B|-1212121212121212|---7-7-7-----------|
G|-----------------|-------------------|
D|-9-9-9-9-9-9-9-9-|---4-4-4-----------|
A|-----------------|-------------------|
E|-----------------|-------------------| x2

Then POST-CHORUS for outro
Tap to rate this tab
# A B C D E F G H I J K L M N O P Q R S T U V W X Y Z