Guitaretab - guitar tabs
Song name
# A B C D E F G H I J K L M N O P Q R S T U V W X Y Z

Green Day - Sick tab

Band: Green Day
Song: Sick
Album: Rare B side
Guitarist: Billie Joe
Tabbed by: Chris Hansen email me at blinkmeb4@hotmail.com
(This is one of my favorites from Green Day, shoutouts to my friends)

Verses (repeat)
E|---------------------------------------|
B|---------------------------------------|
G|----------7----------------------------|
D|-77777777-7-55-7-----------------------|
A|-77777777-5-55-7-----------------------|
E|-55555555---33-5-----------------------|
"Why can't you..."

Chorus
E|---------------------------------------|
B|---------------------------------------|
G|--5555------5---7----------------------|
D|--5555-5555-5-7-7-5--------------------|
A|--3333-5555-3-7-5-5--------------------|
E|-------3333---5---3--------------------|
"Open up the door.."

Bridge
E|---------------------------------------|
B|---------------------------------------|
G|-9-77777777-9-77777777-----------------|
D|-9-77777777-9-77777777-----------------|
A|-7-55555555-7-55555555-----------------|
E|---------------------------------------|
"So you got your problems.."

E|---------------------------------------|
B|---------------------------------------|
G|----------7----------------------------|
D|-77777777-7-55-7-----------------------|
A|-77777777-5-55-7-----------------------|
E|-55555555---33-5-----------------------|
(Do the verse without singing)
[ Tab from: http://www.guitaretab.com/g/green-day/22772.html ]
Related for Sick tab
Advertisement will be closed in 10 seconds