Song name
# A B C D E F G H I J K L M N O P Q R S T U V W X Y Z

Green Day - 86 tab

Song: 86
Band: Green Day
Album: Insomniac

* pick scrape

Intro 1:
|---------|
|---------|
|---------|
|---------|
|********-|
|---------|

Intro 2/Chorus:
|-----------------------------------|
|-9-9-9-9---------------------------|
|-9-9-9-9--6-6-6-6--7-7-7-7-7-7-7-7-|x2
|-7-7-7-7--6-6-6-6--7-7-7-7-7-7-7-7-|
|----------4-4-4-4--5-5-5-5-5-5-5-5-|

Verse: (palm muted except for a few chords. listen to the song to figure em out)
|-----------------------------------------------------------------------------|
|-----------------------------------------------------------------------------|
|------------------4-4-4-4-4-4-4-4--2-2-2-2-2-2-2-2-------------------------2-|
|-2-2-2-2-2-2-2-2--4-4-4-4-4-4-4-4--2-2-2-2-2-2-2-2--2-2-2-2-2-2-2-2---2-2--2-|
|-2-2-2-2-2-2-2-2--2-2-2-2-2-2-2-2--0-0-0-0-0-0-0-0--2-2-2-2-2-2-2-2---2-2--0-|
|-0-0-0-0-0-0-0-0------------------------------------0-0-0-0-0-0-0-0---0-0----|

Bridge to Chorus:
|------------------------------------------------------------------|
|------------------------------------------------------------------|
|------------------------------------------------------------------|
|-9-9-9-9-9-9-9-9-9-9-9-9-9-9-9-9--7-7-7-7-7-7-7-7-7-7-7-7-7-7-7-7-|
|-9-9-9-9-9-9-9-9-9-9-9-9-9-9-9-9--7-7-7-7-7-7-7-7-7-7-7-7-7-7-7-7-|
|-7-7-7-7-7-7-7-7-7-7-7-7-7-7-7-7--5-5-5-5-5-5-5-5-5-5-5-5-5-5-5-5-|

Intro 2/Chorus 2

Verse 2
 
Bridge to Chorus 2

Intro 2/Chorus 3

Bridge:                              Post bridge bit: 
|-----------------------------------|------------------------------------------|
|-----------------------------------|------------------------------------------|
|-9-9-9-9---------------------------|------------------------------------------|
|-9-9-9-9--6-6-6-6--7-7-7-7-7-7-7-7-|-9-9-9-9-9--7--9-9-9-9-9--7-7-7-7-7-7-7-7-|
|-7-7-7-7--6-6-6-6--7-7-7-7-7-7-7-7-|-9-9-9-9-9--7--9-9-9-9-9--7-7-7-7-7-7-7-7-|
|----------4-4-4-4--5-5-5-5-5-5-5-5-|-7-7-7-7-7--5--7-7-7-7-7--5-5-5-5-5-5-5-5-|
 Bridge 4 times                           Stop here| Then carry on

Intro 2/Chorus 4

Post bridge bit (up to 'stop here') END!!!

There ya go enjoy.
Comments or suggestions to brooky22888@hotmail.com.
Tap to rate this tab
# A B C D E F G H I J K L M N O P Q R S T U V W X Y Z