Green Day - Stay The Night Live tab

e------------------------------------------------|
B-7-7-5-10-10-8-7-7-5-7---7-7-5-10-10-10-2-2-3-5-|
G------------------------------------------------|
D------------------------------------------------|
A------------------------------------------------|
E------------------------------------------------|

e------------------------------------------------|
B-7-7-5-10-10-10---------------------------------|
G----------------7-7-5-4--2-4-5-7-5-4-5--xxxxxx--|
D------------------------------------------------|
A------------------------------------------------|
E------------------------------------------------|

e------------------------------------------------|
B------------------------------------------------|
G-7777----77-------------------------------------|
D-7777-77-77-5555-7777---------------------------|
A-5555-77-55-5555-7777---------------------------|
E------55----3333-5555---------------------------|

e------------------------------------------------|
B------------------------------------------------|
G-7777----77-------------------------------------|
D-7777-77-77-5555-7777---------------------------|
A-5555-77-55-5555-7777---------------------------|
E------55----3333-5555---------------------------|

e------------------------------------------------|
B------------------------------------------------|
G-77777777---------------------------------------| palm mute
D-77777777-5555-7777-----------------------------|
A-55555555-5555-7777-----------------------------|
E----------3333-5555-----------------------------|
I havenīt...


e------------------------------------------------|
B------------------------------------------------|
G-----------7777-7777----------------------------| 
D-9999-5555-7777-7777----------------------------| 2x
A-9999-5555-5555-7777----------------------------|
E-7777-3333------5555----------------------------|
I gotta know...

e------------------------------------------------|
B------------------------------------------------|
G-7777----77-------------------------------------|
D-7777-77-77-5555-7777---------------------------|
A-5555-77-55-5555-7777---------------------------|
E------55----3333-5555---------------------------|
So stay, stay the night...


last solo
e------------------------------------------------|
B-7-7-5-10-10-8-7-7-5-7---7-7-5-10-10-10-2-2-3-5-|
G------------------------------------------------|
D------------------------------------------------|
A------------------------------------------------|
E------------------------------------------------|

e------------------------------------------------|
B-7-7-5-10-10-10---------------------------------|
G----------------7-7-5-4--2-4-5-7-5-4-5----------|
D------------------------------------------------|
A------------------------------------------------|
E------------------------------------------------|
Tap to rate this tab
 
# A B C D E F G H I J K L M N O P Q R S T U V W X Y Z