Green Day - Stay The Night tab

----------------------------------------------------------------------------

                        Stay The Night - Green Day
----------------------------------------------------------------------------

Tabbed by: greendaypunkrox
Email: jjjamadori@aol.com

Tuning: Standard

Intro:
e|--2-2-----2--5-5-3-2-2-0-2--2-2-2-----2-2-----2-5--5-5-5-5-----------0-----|
B|--3-3--7/-3---------------------------3-3--7/-3------------2-2-2-2-3-------|
G|---------------------------------------------------------------------------|
D|---------------------------------------------------------------------------|
A|---------------------------------------------------------------------------|
E|---------------------------------------------------------------------------|
                                                     * * * * * * * * * * *
e|--2-2-----2--5~-5-5-5------------------------------2-2-2-2-2-2-2-2-2-2-2--|
B|--3-3--7/-3------------3--3-3-1-0---2-2-3-5-3-2----3-3-3-3-3-3-3-3-3-3-3--|
G|--------------------------------------------------------------------------|
D|--------------------------------------------------------------------------|
A|--------------------------------------------------------------------------|
E|--------------------------------------------------------------------------|

e|--------------------------------------------------------------------------|
B|--------------------------------------------------------------------------|
G|--7--7-7-7-7-7-7----------7-----------------------------------------------|
D|--7--7-7-7-7-7-7--7--7-7--7--7--5--5-5-5-5-5-5--7--7-7-7-7-7-7------------|
A|--5--5-5-5-5-5-5--7--7-7--5--7--5--5-5-5-5-5-5--7--7-7-7-7-7-7----(x2)----|
E|------------------5--5-5-----5--3--3-3-3-3-3-3--5--5-5-5-5-5-5------------|

Verse: PALM PUTED!!
e|--------------------------------------------------------------------------|
B|--------------------------------------------------------------------------|
G|--7-----------------------------------------------------------------------|
D|--7-(x16)--5-5-5-5-5-5-5-5--7-7-7-7-7-7-7-7------(x4)---------------------|
A|--5--------5-5-5-5-5-5-5-5--7-7-7-7-7-7-7-7-------------------------------|
E|-----------3-3-3-3-3-3-3-3--5-5-5-5-5-5-5-5-------------------------------|

Pre-Chorus:
e|--------------------------------------------------------------------------|
B|--------------------------------------------------------------------------|
G|--4--4--4-4-4--------------------7--7--7-7-7------------------------------|
D|--4--4--4-4-4--5--5-5-5-5-5-5-5--7--7--7-7-7--7--7-7-7-7-7-7-7---(x2)-----|
A|--2--2--2-2-2--5--5-5-5-5-5-5-5--5--5--5-5-5--7--7-7-7-7-7-7-7------------|
E|---------------3--3-3-3-3-3-3-3---------------5--5-5-5-5-5-5-5------------|

Chorus:
e|--------------------------------------------------------------------------|
B|--------------------------------------------------------------------------|
G|--7--7-7-7-7-7-7----------7-----------------------------------------------|
D|--7--7-7-7-7-7-7--7--7-7--7--7--5--5-5-5-5-5-5--7--7-7-7-7-7-7------------|
A|--5--5-5-5-5-5-5--7--7-7--5--7--5--5-5-5-5-5-5--7--7-7-7-7-7-7----(x4)----|
E|------------------5--5-5-----5--3--3-3-3-3-3-3--5--5-5-5-5-5-5------------|

Some Little Guitar Part Near The End
(Not That Sure About It But It's Something Like That):
e|--------------------------------------------------------------------------|
B|--------------------------------------------------------------------------|
G|--12--12-12--12-12-12---14--14-14--14-14-14-------------------------------|
D|--x---x--x---x--x--x----x---x--x---x--x--x--------------------------------|
A|--10--10-10--10-10-10---12--12-12--12-12-12-------------------------------|
E|--------------------------------------------------------------------------|

Outro:
e|--2-2-----2--5-5-3-2-2-0-2--2-2-2-----2-2-----2-5--5-5-5-5-----------0-----|
B|--3-3--7/-3---------------------------3-3--7/-3------------2-2-2-2-3-------|
G|---------------------------------------------------------------------------|
D|---------------------------------------------------------------------------|
A|---------------------------------------------------------------------------|
E|---------------------------------------------------------------------------|

e|--2-2-----2--5~-5-5-5-----------------------------------------------------|
B|--3-3--7/-3------------3--3-3-1-0---2-2-3-5-3-2---------------------------|
G|----------------------------------------------------7~--7~--7~--7~--------|
D|----------------------------------------------------7~--7~--7~--7~--------|
A|----------------------------------------------------5~--5~--5~--5~--------|
E|--------------------------------------------------------------------------|

       This Song Iz Awesome!! It SOunds A Lot Like Their Older Stuff.
 Well.. That's all I could sound out. PLEAZZ RATE AN ENJOY :)

************************************

| /   slide up
| \   slide down
| h   hammer-on
| p   pull-off
| ~   vibrato
| +   harmonic
| x   Mute note
| b   Bend
| pb  Pre-bend
| br  Bend release
| pbr Pre-bend release
| brb Bend release bend

************************************
Tap to rate this tab
 
# A B C D E F G H I J K L M N O P Q R S T U V W X Y Z