Song name
# A B C D E F G H I J K L M N O P Q R S T U V W X Y Z

Green Day - Welcome To Paradise tab

-------------------------------------------------------------------------------
		       Welcome to Paradise- Green Day
-------------------------------------------------------------------------------

By: Daniel (PunkDudez471@AOL.com)

INTRO
e|---------------------------------------------------------------------------|
B|---------------------------------------------------------------------------|
G|--8-888-88--666------------------------------------------------------------|
D|--8-888-88--666--6666------------------------------------------------------|
A|--6-666-66--444--6666------------------------------------------------------|
E|-----------------4444------------------------------------------------------|

VERSE
e|---------------------------------------------------------------------------|
B|---------------------------------------------------------------------------|
G|--888-888--666-666--888-888-888-888------888-888-666-666-------------------|
D|--888-888--666-666--888-888-888-888------888-888-666-666-444-444-888-888---|
A|--666-666--444-444--666-666-666-666------666-666-444-444-444-444-888-888---|
E|---------------------------------------------------------222-222-666-666---|

CHORUS
e|---------------------------------------------------------------------------|
B|---------------------------------------------------------------------------|
G|--888-888-666-666---------444-444------888-888-666-666---------------------|
D|--888-888-666-666-666-666-444-444------888-888-666-666-888-888-888-888-----|
A|--666-666-444-444-666-666-222-222------666-666-444-444-888-888-888-888-----|
E|------------------444-444------------------------------666-666-666-666-----|

BRIDGE                                 (come in at 2:15)
e|---------------------------------------------------------------------------|
B|-------------------------------------xx-8-xx-11-xx-10-xx-9-----------------|
G|--8~---------------------------------xx-8-xx-11-xx-10-xx-9-----------------|
D|--8~---------------------------------xx-8-xx-11-xx-10-xx-9-----------------|
A|--6~-----------------------------------------------------------------------|
E|---------------------------------------------------------------------------|

===============================================================================
Tap to rate this tab
# A B C D E F G H I J K L M N O P Q R S T U V W X Y Z