Song name
# A B C D E F G H I J K L M N O P Q R S T U V W X Y Z

Green Day - Horseshoes And Handgrenades tab

                 Green Day - Horseshoes and Handgrenades


I hope you like this tab.

Tuning: Standard



Intro-	Guitar 1

e|---------------------------------------------------------------------------|
B|---------------------------------------------------------------------------|
G|------7-999-----------x3---------------7-999---------x1--------------------|
D|---99-7-999-777-4444----------------99-7-999-777-4-------------------------|
A|---99-5-777-777-4444----------------99-5-777-777-4-------------------------|
E|---77-------555-2222----------------77-------555-2-------------------------|


Verse- 	Guitar 1 and 2

e|---------------------------------------------------------------------------|
B|---------------------------------------------------------------------------|
G|------7-999-----------x2---------------------------------------------------|
D|---99-7-999-777-4444-------------------------------------------------------|
A|---99-5-777-777-4444-------------------------------------------------------|
E|---77-------555-2222-------------------------------------------------------|


Interlude- Guitar 2

e|---------------------------------------------------------------------------|
B|---------------------------------------------------------------------------|
G|---44444444-7777777799999999-12-12-12-12-12-----x1------------------------|
D|---------------------------------------------------------------------------|
A|---22222222-55555555-77777777-10-10-10-10-10-------------------------------|
E|---------------------------------------------------------------------------|


Verse- Guitar 1 and 2

e|---------------------------------------------------------------------------|
B|---------------------------------------------------------------------------|
G|------7-999-----------x8---------------------------------------------------|
D|---99-7-999-777-4444-------------------------------------------------------|
A|---99-5-777-777-4444-------------------------------------------------------|
E|---77-------555-2222-------------------------------------------------------|


Chorus- Guitar 1 and 2

e|-------------------------------------7-7-7-7-7-7-7-7-7-7-7-7-7-------------|
B|---9-9-9-9-9-9-9-9-9-9-9-9-9---------7-7-7-7-7-7-7-7-7-7-7-7-7-------------|
G|---9-9-9-9-9-9-9-9-9-9-9-9-9---------8-8-8-8-8-8-8-8-8-8-8-8-8-------------|
D|---9-9-9-9-9-9-9-9-9-9-9-9-9--7-7-7--9-9-9-9-9-9-9-9-9-9-9-9-9---7-7-7-----|
A|---7-7-7-7-7-7-7-7-7-7-7-7-7--7-7-7--9-9-9-9-9-9-9-9-9-9-9-9-9---7-7-7-----|
E|------------------------------5-5-5--7-7-7-7-7-7-7-7-7-7-7-7-7---5-5-5-----|

e|---------------------------------------------------------------------------|
B|---9-9-9-9-9-9-9-9-9-9-9-9-9-9-9-9-----------------------------------------|
G|---9-9-9-9-9-9-9-9-9-9-9-9-9-9-9-9-----------------------------------------|
D|---9-9-9-9-9-9-9-9-9-9-9-9-9-9-9-9---4-4-4-4-4-4-4-4-4-4-4-4---------------|
A|---7-7-7-7-7-7-7-7-7-7-7-7-7-7-7-7---4-4-4-4-4-4-4-4-4-4-4-4---------------|
E|-------------------------------------2-2-2-2-2-2-2-2-2-2-2-2---------------|


Verse- Guitar 1 and 2

e|---------------------------------------------------------------------------|
B|---------------------------------------------------------------------------|
G|------7-999-----------x8---------------------------------------------------|
D|---99-7-999-777-4444-------------------------------------------------------|
A|---99-5-777-777-4444-------------------------------------------------------|
E|---77-------555-2222-------------------------------------------------------|






Chorus- Guitar 1 and 2

e|-------------------------------------7-7-7-7-7-7-7-7-7-7-7-7-7-------------|
B|---9-9-9-9-9-9-9-9-9-9-9-9-9---------7-7-7-7-7-7-7-7-7-7-7-7-7-------------|
G|---9-9-9-9-9-9-9-9-9-9-9-9-9---------8-8-8-8-8-8-8-8-8-8-8-8-8-------------|
D|---9-9-9-9-9-9-9-9-9-9-9-9-9--7-7-7--9-9-9-9-9-9-9-9-9-9-9-9-9---7-7-7-----|
A|---7-7-7-7-7-7-7-7-7-7-7-7-7--7-7-7--9-9-9-9-9-9-9-9-9-9-9-9-9---7-7-7-----|
E|------------------------------5-5-5--7-7-7-7-7-7-7-7-7-7-7-7-7---5-5-5-----|

e|---------------------------------------------------------------------------|
B|---9-9-9-9-9-9-9-9-9-9-9-9-9-9-9-9-----------------------------------------|
G|---9-9-9-9-9-9-9-9-9-9-9-9-9-9-9-9-----------------------------------------|
D|---9-9-9-9-9-9-9-9-9-9-9-9-9-9-9-9---4-4-4-4-4-4-4-4-4-4-4-4---------------|
A|---7-7-7-7-7-7-7-7-7-7-7-7-7-7-7-7---4-4-4-4-4-4-4-4-4-4-4-4---------------|
E|-------------------------------------2-2-2-2-2-2-2-2-2-2-2-2---------------|


Bridge

e|---------------------------------------------------------------------------|
B|---------------------------------------------------------------------------|
G|---------------------------------------------------------------------------|
D|---999-7---999-7---999-7---999-7----\--------------------------------------|
A|---999-7---999-7---999-7---999-7----\--------------------------------------|
E|---777-5---777-5---777-5---777-5----\--------------------------------------|


Verse- Guitar 1 and 2

e|---------------------------------------------------------------------------|
B|---------------------------------------------------------------------------|
G|------7-999-----------x4---------------------------------------------------|
D|---99-7-999-777-4444-------------------------------------------------------|
A|---99-5-777-777-4444-------------------------------------------------------|
E|---77-------555-2222-------------------------------------------------------|


Interlude- guitar 2

e|---------------------------------------------------------------------------|
B|---------------------------------------------------------------------------|
G|---44444444-7777777799999999-12-12-12-12-12-----x4------------------------|
D|---------------------------------------------------------------------------|
A|---22222222-55555555-77777777-10-10-10-10-10-------------------------------|
E|---------------------------------------------------------------------------|


Verse- Guitar 1

e|---------------------------------------------------------------------------|
B|---------------------------------------------------------------------------|
G|------7-999-----------x2---------------------------------------------------|
D|---99-7-999-777-4444-------------------------------------------------------|
A|---99-5-777-777-4444-------------------------------------------------------|
E|---77-------555-2222-------------------------------------------------------|


Verse- Guitar 1 and 2

e|---------------------------------------------------------------------------|
B|---------------------------------------------------------------------------|
G|------7-999-----------x4---------------------------------------------------|
D|---99-7-999-777-4444-------------------------------------------------------|
A|---99-5-777-777-4444-------------------------------------------------------|
E|---77-------555-2222-------------------------------------------------------|
Outro- Guitar 1 and 2

e|---------------------------------------------------------------------------|
B|---------------------------------------------------------------------------|
G|-------5\7-----77-x3----------------5\7-----77----------------------------|
D|---5\7-5\7-5\7-77----------------5\7-5\7-5\7-77--999-7---------------------|
A|---5\7-7\9-5\7-99----------------5\7-7\9-5\7-99--999-7---------------------|
E|---7\9-----7\9-------------------7\9-----7\9-----777-5---------------------|



| .  palm mute
| b  bend
| /  slide up
| \  slide down
| h  hammer-on
| p  pull-off
| ~  vibrato
| +  harmonic
| x  Mute note
===============================================================================
Tap to rate this tab
 
# A B C D E F G H I J K L M N O P Q R S T U V W X Y Z