Guitaretab - guitar tabs
Song name
# A B C D E F G H I J K L M N O P Q R S T U V W X Y Z

Green Day - Basket Case tab

-------------------------------------------------------------------------------
			     BASKET CASE - Green Day
-------------------------------------------------------------------------------

By: Daniel

INTRO
e|---------------------------------------------------------------------------|
B|---------------------------------------------------------------------------|
G|---------------------------------------------------------------------------|
D|--999999------------------------------------999999-------------------------|
A|--777777-999999-111111111111--666666-777777-777777-999999-999999-(2x)------|
E|---------777777--9-9-9-9-9-9--444444-555555--------777777-777777-----------|
PM  .. ..  .. ..   . .   . .    .. ..  .. ..  .. ..  .. ..  .. ..  

e|---------------------------------------------------------------------------|
B|---------------------------------------------------------------------------|
G|---------------------------------------------------------------------------|
D|----------------999999-999999----------------------------------------------|
A|--777777-999999-777777-777777-(2x)-77777777-99999999-----------------------|
E|--555555-777777--------------------55555555-77777777-----------------------|
PM  .. ..  .. ..  .. ..  .. ..       ........ ........

e|---------------------------------------------------------------------------|
B|---------------------------------------------------------------------------|
G|---------------------------------------------------------------------------|
D|--99-77-66------------------------------99---------------------------------|
A|--77-55-44-777777-999999----------------77-99-1111-99-(2x)-----------------|
E|-----------555555-777777-------------------77--9-9-77----------------------|

(DO THIS AGAIN WITHOUT PM)

INTERLUDE
e|---------------------------------------------------------------------------|
B|---------------------------------------------------------------------------|
G|---------------------------------------------------------------------------|
D|--7777777777777777-999999999-----------------------------------------------|
A|--7777777777777777-999999999-----------------------------------------------|
E|--5555555555555555-777777777-----------------------------------------------|
PM  ................

ENDING
e|---------------------------------------------------------------------------|
B|---------------------------------------------------------------------------|
G|--999999-666666----999---------9999999-666666---9--------9-----------------|
D|--999999-666666-99-999-11-(3x)-9999999-666666-7-9-9----7-9-9---------------|
A|--777777-444444-99-777-11------7777777-444444-7-7-9----7-7-9---------------|
E|----------------77------9---------------------5---7----5---7---------------|


===============================================================================
[ Tab from: http://www.guitaretab.com/g/green-day/23339.html ]
Related for Basket Case tab
Basket Case chords by Green Day