Song name
# A B C D E F G H I J K L M N O P Q R S T U V W X Y Z

Green Day - Knowledge tab

Knowledge
Green Day
1039/Smoothed out slappy hours
Tabber: David Brook (brooky22888@hotmail.com)

the 3 chords in this song are:

    D5  C5   G5
E|----|----|----|
B|----|----|----|
G|-7--|-5--|----|
D|-7--|-5--|-5--|
A|-5--|-3--|-5--|
E|----|----|-3--|





Guitar solo in D pentatonic (not my tabbing):
E|-------10-------10-------10-------10-|
B|----10-------10-------10-------10----|
G|-12b------12b------12b------12b------|
D|-------------------------------------|
A|-------------------------------------|
E|-------------------------------------|


E|-------10-------10-------10-------10-|
B|----10-------10-------10-------10----|
G|-12b------12b------12b------12b------|
D|-------------------------------------|
A|-------------------------------------|
E|-------------------------------------|
         
                                     
E|----------------------------------10-|
B|-------------------------------10----|
G|-12b-r-10-10-10-10-10-10-10-12b------|
D|-------------------------------------|
A|-------------------------------------|
E|-------------------------------------|

  
E|-------------13b---------13-10-------|
B|-13b---13-------------------------13-|
G|-------------------------------------|
D|-------------------------------------|
A|-------------------------------------|
E|-------------------------------------|

   
E|-10----------------------------------|
B|-------13-11-10----10----------------|
G|----------------12----12-10-10-12----|
D|-------------------------------------|
A|-------------------------------------|
E|-------------------------------------|

E|-------------------------------------|
B|-10----------------------------------|
G|-------12-10----10----------12----10-|
D|-------------------------------------|
A|-------------------------------------|
E|-------------------------------------|

                                   
E|-------10------------------------------|
B|----10---------------------------------|
G|-12b------12b-r-10-10-10-10-12p10---10-|
D|---------------------------------12----|
A|---------------------------------------|
E|---------------------------------------|

  
E|-------------------------------------|
B|-------------------------------------|
G|-------------------------------------|
D|-12-11-10----------------12~---------|
A|----------12-11-10-------------------|
E|-------------------13----------------|

Tap to rate this tab
# A B C D E F G H I J K L M N O P Q R S T U V W X Y Z