Green Day - Restless Heart Syndrome tab

Band  : Green Day
Song  : Restless Heart Syndrome (track 13)
Album : 21st Century Breakdown
Tuning: Standard

Gtr 1 : Jason White
Gtr 2 : Billie Joe Armstrong

Intro(piano)
e|----3-----3-----3-------------|---3------3------3------------|
B|----3-----3-----3-----8-------|---3------3------3----7-------|
G|----0-----0-----0-----8-------|---0------0------0----7-------|
D|---0-0---0-0---0-0---8-8------|--0-0----0-0----0-0---7-------|
A|--------------------6---------|----------------------5-------|
E|--3-----1-----0---------------|-3------1------0--------------|

Verse : (Gtr1) (0:13 - 0:59)
e|--3--3---3--3---3--3-------|
B|--3--3---3--3---3--3---8---|
G|--0--0---0--0---0--0---8---|
D|--0--0---0--0---0--0---8---|
A|--x--x---x--x---x--x---6---|
E|--3--3---1--1---0--0-------|

(Gtr 2) (0:36 - 0:59)
e|--------------------------------|
B|--3-3-xx-3-3-xx-3-3-xx-3-3-3-3--|
G|--3-3-xx-3-3-xx-3-3-xx-3-3-3-3--|
D|--5-5-xx-3-3-xx-2-2-xx-1-1-1-1--|
A|--------------------------------|
E|--------------------------------|

Pre chorus (Gtr 1 Gtr 2)      (1:00  -  1:11)
e|-----------------------------------|-----------------------------|
B|--4-4--xx--3-3--xx--1-1--xx--1-1---|-4-4-xx-3-3-xx-1-1-1-1-1-1---|
G|--5-5--xx--3-3--xx--2-2--xx--0-0---|-5-5-xx-3-3-xx-2-2-2-2-2-2---|
D|--5-5--xx--3-3--xx--2-2--xx--2-2---|-5-5-xx-3-3-xx-2-2-2-2-2-2---|
A|--3-3--xx--1-1--xx--0-0--xx--0-0---|-3-3-xx-1-1-xx-0-0-0-0-0-0---|
E|-----------------------------------|-----------------------------|
    (1:12 - 1:17)
e|---------------------------------|
B|-7---7---7---7---7---7---7---7---|
G|-7---7---7---7---7---7---7---7---|
D|-7-7-7-7-7-7-7-7-7-7-7-7-7-7-7---|
A|-5-5-5-5-5-5-5-5-5-5-5-5-5-5-5---|
E|---------------------------------|

Verse : (Gtr1) (1:18 - 2:04)
e|--3--3---3--3---3--3-------|
B|--3--3---3--3---3--3---8---|
G|--0--0---0--0---0--0---8---|
D|--0--0---0--0---0--0---8---|
A|--x--x---x--x---x--x---6---|
E|--3--3---1--1---0--0-------|

(Gtr 2) (1:18 - 2:04)          Gtr3 (1:46 - 1:47)(1:52 - 1:53)(1:57 - 1:58) 
e|------------------------------| |----------------------------------------|
B|-3-3-xx-3-3-xx-3-3-xx-3-3-3-3-| |----------------------------------------|
G|-3-3-xx-3-3-xx-3-3-xx-3-3-3-3-| |---15-----12----15-----12----15-----12--|
D|-5-5-xx-3-3-xx-2-2-xx-1-1-1-1-| |----------------------------------------|
A|------------------------------| |----------------------------------------|
E|------------------------------| |----------------------------------------|

Pre chorus (Gtr 1 Gtr 2)      (2:04  -  2:15)
e|-----------------------------------|-----------------------------|
B|--4-4--xx--3-3--xx--1-1--xx--1-1---|-4-4-xx-3-3-xx-1-1-1-1-1-1---|
G|--5-5--xx--3-3--xx--2-2--xx--0-0---|-5-5-xx-3-3-xx-2-2-2-2-2-2---|
D|--5-5--xx--3-3--xx--2-2--xx--2-2---|-5-5-xx-3-3-xx-2-2-2-2-2-2---|
A|--3-3--xx--1-1--xx--0-0--xx--0-0---|-3-3-xx-1-1-xx-0-0-0-0-0-0---|
E|-----------------------------------|-----------------------------|
    (2:16 - 2:21)
e|---------------------------------|
B|-7---7---7---7---7---7---7---7---|
G|-7---7---7---7---7---7---7---7---|
D|-7-7-7-7-7-7-7-7-7-7-7-7-7-7-7---|
A|-5-5-5-5-5-5-5-5-5-5-5-5-5-5-5---|
E|---------------------------------|

Chorus  (Gtr 1 - Gtr 2) (2:22 - 2:43)
e|---------------------------------xx-----xx-----xx-------|
B|--3-3-3-3-3-3--------------------xx-1-1-xx-----xx-------|
G|--0-0-0-0-0-0--------------------xx-0-0-xx-----xx--7-7--|
D|--0-0-0-0-0-0--3-3-3-3-3-3---2-2-xx-2-2-xx-3-3-xx--7-7--|
A|--2-2-2-2-2-2--3-3-3-3-3-3---2-2-xx-3-3-xx-3-3-xx--5-5--|
E|--3-3-3-3-3-3--1-1-1-1-1-1---0-0-xx-----xx-1-1-xx-------|

(2:44) KNOW YOUR ENEMY
Distortion here :
Solo (Gtr 1) (2:45 - 3:07)
|------------------------------------------------------------------------------------------------|
|------------------------------------------------------------------------------------------------|
|-12-12-12-12-15-15-12-12-14-14-14-14-15-15-12-12-12-12-12-12-12-12-12-12-12-12-12-12-12-12-12-12|
|-x--x--x--x--x--x--x--x--x--x--x--x--x--x--x--x--x--x--x--x--x--x--x--x--x--x--x--x--x--x--x--x-|
|-10-10-10-10-13-13-10-10-12-12-12-12-13-13-10-10-10-10-10-10-10-10-10-10-10-10-10-10-10-10-10-10|
|------------------------------------------------------------------------------------------------|

|------------------------------------------------------------------------------------------------|
|------------------------------------------------------------------------------------------------|
|-12-12-12-12-15-15-12-12-14-14-14-14-15-15-17-17-17-17-15-15-14-14-15-15-15-15-14-14-10-10-10-10|
|-x--x--x--x--x--x--x--x--x--x--x--x--x--x--x--x--x--x--x--x--x--x--x--x--x--x--x--x--x--x--x--x-|
|-10-10-10-10-13-13-10-10-12-12-12-12-13-13-15-15-15-15-13-13-12-12-13-13-13-13-12-12-8--8--8--8-|
|------------------------------------------------------------------------------------------------|

|-----------------------------------------------------------------------------------------------|
|-----------------------------------------------------------------------------------------------|
|-10-10-7--15-15-12-12-14-14-14-14-15-15-12-12-12-12-12-12-12-12-12-12-12-12-12-12-12-12-12-7---|
|-x--x--x--x--x--x--x--x--x--x--x--x--x--x--x--x--x--x--x--x--x--x--x--x--x--x--x--x--x--x--x---|
|-8--8--5--13-13-10-10-12-12-12-12-13-13-10-10-10-10-10-10-10-10-10-10-10-10-10-10-10-10-10-5---|
|-----------------------------------------------------------------------------------------------|

|-----------------------------------------------------------------------------------------------|
|-----------------------------------------------------------------------------------------------|
|-12-12-12-12-15-15-12-12-14-14-14-14-15-15-17-17-17-17-17-17-17-17-17-17-17-17-19-19-19-19-----|
|-x--x--x--x--x--x--x--x--x--x--x--x--x--x--x--x--x--x--x--x--x--x--x--x--x--x--x--x--x--x------|
|-10-10-10-10-13-13-10-10-12-12-12-12-13-13-15-15-15-15-15-15-15-15-15-15-15-15-17-17-17-17-----|
|-----------------------------------------------------------------------------------------------|

(GTR 2)  (2:45 - 3:07)                          
|----------------------------------------------|
|----------------------------------------------|
|----------------------------------8-8-8-8-8-8-|
|-5-5-5-5-5--3-3-3-3-3--2-2-2-2-2--8-8-8-8-8-8-| 
|-5-5-5-5-5--3-3-3-3-3--2-2-2-2-2--6-6-6-6-6-6-| 
|-3-3-3-3-3--1-1-1-1-1--0-0-0-0-0--------------| 

Chorus
Gtr 2
(3:08) I'm elated  (3:11)  Medicated   (3:13 - 3:17) I am my own worst enemy
|-----------------------------------|--------------------------------------|
|-----------------------------------|--------------------------------------|
|-----------------------------------|-----------5-5-5-5-----------7-7-7-7--|
|--5-5----------------3-3-3---------|--2-2-2-2--5-5-5-5--3-3-3-3--7-7-7-7--|
|--5-5----------------3-3-3---------|--2-2-2-2--3-3-3-3--3-3-3-3--5-5-5-5--|
|--3-3----------------1-1-1---------|--0-0-0-0-----------1-1-1-1-----------|

(3:18)So what ails you (3:21)is what impales you  (3:24 - 3:29) You are your own worst enemy
|-----------------------------------------------------|--------------------------------------|
|-----------------------------------------------------|--------------------------------------|
|-----------------------------------------------------|-----------5-5-5-5-----------7-7-7-7--|
|--5-5------------------3-3-3-------------------------|--2-2-2-2--5-5-5-5--3-3-3-3--7-7-7-7--|
|--5-5------------------3-3-3-------------------------|--2-2-2-2--3-3-3-3--3-3-3-3--5-5-5-5--|
|--3-3------------------1-1-1-------------------------|--0-0-0-0-----------1-1-1-1-----------|
 
(Gtr 1 & 2) (3:30 - 3:50)
|------------------------------------------------------------------------------|
|------------------------------------------------------------------------------|
|---------------------------------------------5-5-5-5-5-------------7-7-7-7-7--|
|--5-5-5-5-5-5-5-5--3-3-3-3-3-3-3--2-2-2-2-2--5-5-5-5-5--3-3-3-3-3--7-7-7-7-7--|
|--5-5-5-5-5-5-5-5--3-3-3-3-3-3-3--2-2-2-2-2--3-3-3-3-3--3-3-3-3-3--5-5-5-5-5--|
|--3-3-3-3-3-3-3-3--1-1-1-1-1-1-1--0-0-0-0-0-------------1-1-1-1-1-------------|

End:
Gtr 1 (3:52 - 4:11)
|--------------------------------------------------------------|
|--------------------------------------------------------------|
|--8--8--8--8---------8--8--8--8----------8-8-8---8-8-8-7-7-7--|
|--x--x--x--x---------x--x--x--x----------x-x-x---x-x-x-x-x-x--|
|--10-10-10-10--------10-10-10-10---------6-6-6---6-6-6-5-5-5--|
|--------------------------------------------------------------|

Gtr 2 (3:51 - 4:11)
|--------------------------------------------------------|
|--------------------------------------------------------|
|---------------------------------8-8-8-8---8-8-8-7-7-7--|
|--5-5-5-5--------5-5-5-5---------8-8-8-8---8-8-8-7-7-7--|
|--5-5-5-5--------5-5-5-5---------6-6-6-6---6-6-6-5-5-5--|
|--3-3-3-3--------3-3-3-3--------------------------------|

Gtr 1 (4:12 - 4:15) 
|-----------------|
|-----------------|
|---10-10-10-10---|
|---x--x--x--x----|
|---8--8--8--8----|
|-----------------|

Gtr 2 (4:12 - 4:15)
|----------------|
|----------------|
|----------------|
|---5--5--5--5---|
|---5--5--5--5---|
|---3--3--3--3---|

question to lucasrk1@hotmail.com 
it's easy (:
Tap to rate this tab
 
# A B C D E F G H I J K L M N O P Q R S T U V W X Y Z