Song name
# A B C D E F G H I J K L M N O P Q R S T U V W X Y Z

Green Day - Minority tab

Intro (Acoustic or clean)

e--------|-------|----0--|--------|--------|-------|---------|
b-----1--|----3--|--1--1-|-----1--|-----1--|----3--|---------|
g--0---0-|--0--0-|---2---|----0-0-|----0-0-|--0--0-|-2-0-----|
d----2---|---0---|-3-----|-0p2----|-0p2----|---0---|-3-2-0-2-|
a-3------|-------|-------|--------|--------|-------|-------3-|
e--------|-3-----|-------|--------|--------|-3-----|---------|

Chorus (Electric and acoustic)

e--------------------|
b--------------------|
g-555----------------|
d-555--333--555--333-|  X4
a-333--333--555--333-|
e------111--333--111-|
I wanna be the minority

I dont need your authority

Down with the moral majority

Cause i wanna be the minority

Verse (Acoustic or clean)
e------------3------------------------|
b--1---------3------1----------1------|
g--0---------0------2----------0------|
d--2---------0------0----------2------|
a--3---------2------3----------3------|
e------------3------------------------|
I pledge allegiance to the underworld

e-----------------3-------------1------------3----|
b-----------------3-------------1------------3----|
g-----------------0-------------2------------0----|
d-----------------0-------------3------------0----|
a-----------------2--------------------------2----|
e-----------------3--------------------------3----|
One nation under dog there of which i stand alone

e---------------3----------------------------|
b--1------------3-------1-----------------1--|
g--0------------0-------2-----------------0--|
d--2------------0-------0-----------------2--|
a--3------------2-------3-----------------3--|
e---------------3----------------------------|
A face in the crowd, Unsung against the mold

e-----------------1--------------3-----------------|
b-----------------1--------------3----------1------|
g-----------------2--------------0----------0--xxx-|
d-----------------3--------------0----------2--xxx-|
a--------------------------------2----------3--xxx-|
e--------------------------------3-----------------|
Without a doubt singled out the only way i know...Cause

Chorus

Bridge (Electric and acoustic)

e-----------------------------------------------------------------|
b-----------------------------------------------------------------|
g--------------9-10101010------------------------9----------------|
d-7-7-7-7-7-7--9-10101010-10101010--7-7-7-7-7-7--9-3333-5555------|
a-7-7-7-7-7-7--7-8-8-8-8--10101010--7-7-7-7-7-7--7-3333-5555------|
e-5-5-5-5-5-5-------------8-8-8-8---5-5-5-5-5-5----1111-3333------|
Stepped out of the line             like a sheep runs from the herd

e------------------------------------------------------------------------|
b------------------------------------------------------------------------|
g---------------10101010-------------------------------------------------|
d-7-7-7-7-7-7-9-10101010-10101010--7-7-7-7-7-7-3-5-5xx5-5xx5-5-5-5-5---4-|
a-7-7-7-7-7-7-7-8-8-8-8--10101010--7-7-7-7-7-7-3-5-5xx5-5xx5-5-5-5-5---4-|
e-5-5-5-5-5-5-------------8-8-8-8--5-5-5-5-5-5-1-3-3xx3-3xx3-3-3-3-3---2-|
Marching out of time              to my own beat now, the only way i know

Verse 2 (Same as verse 1)
One light, one mind flashing in the dark

Blinded by the silence of a thousand broken hearts

For crying out loud, she screamed unto me

A free for all, Fuck 'em all you are your own sight...Cause

Chorus

Bridge (Electric and acoustic)

e-----------------------------------------------------------------|
b-----------------------------------------------------------------|
g--------------9-10101010------------------------9----------------|
d-7-7-7-7-7-7--9-10101010-10101010--7-7-7-7-7-7--9-3333-5555------|
a-7-7-7-7-7-7--7-8-8-8-8--10101010--7-7-7-7-7-7--7-3333-5555------|
e-5-5-5-5-5-5-------------8-8-8-8---5-5-5-5-5-5----1111-3333------|

e---------------------------------------------------------------------------------|
b---------------------------------------------------------------------------------|
g-------------9-10101010--9-9-9-9--------------------------------------4--------4-|
d-7-7-7-7-7-7-9-10101010-10101010--7-7-7-7-7-7-3-5-5xx5-5xx5-5-5-5-5---4-555555-4-|
a-7-7-7-7-7-7-7-8-8-8-8--10101010--7-7-7-7-7-7-3-5-5xx5-5xx5-5-5-5-5---2-555555-2-|
e-5-5-5-5-5-5-------------8-8-8-8--5-5-5-5-5-5-1-3-3xx3-3xx3-3-3-3-3-----333333---|

Interlude (Acosutic or clean)

e-----333-----3----3-|
b-----333-----3----3-|
g-000-000-2-0-0-2--0-|
d-222-000-0-2-0-0--0-|
a-333-222-3-3-2-3--2-|
e-----333-----3----3-|

Verse 3(Same as Verse 2)


Chorus

Outro
 
Guitars 1 and 2(acoustic and electric) 

e--------------------|
b--------------------|
g-555----------------|
d-555--333--555--333-|
a-333--333--555--333-|
e------111--333--111-|
I wanna be the minority

e--------------------|
b--------------------|
g-555----------------|
d-555--333--555--333-|
a-333--333--555--333-|
e------111--333--111-|
I wanna be the minority

e--------------------|
b--------------------|
g-555----------------|
d-555--333--555--333-|
a-333--333--555--333-|
e------111--333--111-|
I wanna be the minority

e--------------------|
b--------------------|
g-555----------------|
d-555--333--555--333-|
a-333--333--555--333-|
e------111--333--111-|
I wanna be the minority

Guitar 3 (Played over guitars 1 and 2), (electric)

e------------------------8-|
b--5-------6--------6h8----|
g-5------------------------|
d--------------------------|
a--------------------------|
e--------------------------|
   I wanna be the minority

e-----------------------|
b--8-------6---------5--|
g---------------------5-|
d-----------------------|
a-----------------------|
e-----------------------|
   I wanna be the minority

e-----------------------8~-|
b--5--------6-------6h8----|
g-5------------------------|
d--------------------------|
a--------------------------|
e--------------------------|
    I wanna be the minority

e---8-----------------8-|
b-8---------8-----------|
g-----------------------|
d-----------------------|
a-----------------------|
e-----------------------|
     I wanna be the minority

Acoustic or Clean
    C        G     Fmaj7     C        C        G     F C
e--------|-------|----0--|--------|--------|-------|---------|
b-----1--|----3--|--1--1-|-----1--|-----1--|----3--|---------|
g--0---0-|--0--0-|---2---|----0-0-|----0-0-|--0--0-|-2-0-----|
d----2---|---0---|-3-----|-0p2----|-0p2----|---0---|-3-2-0-2-|
a-3------|-------|-------|--------|--------|-------|-------3-|
e--------|-3-----|-------|--------|--------|-3-----|---------|

 
Tap to rate this tab
# A B C D E F G H I J K L M N O P Q R S T U V W X Y Z