Song name
# A B C D E F G H I J K L M N O P Q R S T U V W X Y Z

Green Day - All The Time tab

this is an awesome song and its not that hard to play either so here it is.

Intro
|----------|x9|----------|x1
|----------|  |----------|
|-9-9--7---|  |-99999999-|
|-9-9--7-7-|  |-99999999-|
|-7-7--5-7-|  |-77777777-|
|--------5-|  |----------|

Verse
|---------------------------------|x6
|---------------------------------|
|-------------------------7-7-7-7-|
|-6/7-7-7-7-7-7-7--5-5-5--7-7-7-7-|
|-6/7-7-7-7-7-7-7--5-5-5--5-5-5-5-|
|-4/5-5-5-5-5-5-5--3-3-3----------|

Intro
|----------|x9|----------|x1
|----------|  |----------|
|-9-9--7---|  |-99999999-|
|-9-9--7-7-|  |-99999999-|
|-7-7--5-7-|  |-77777777-|
|--------5-|  |----------|

Verse
|---------------------------------|x4
|---------------------------------|
|-------------------------7-7-7-7-|
|-6/7-7-7-7-7-7-7--5-5-5--7-7-7-7-|
|-6/7-7-7-7-7-7-7--5-5-5--5-5-5-5-|
|-4/5-5-5-5-5-5-5--3-3-3----------|

Intro
|----------|x9|----------|x1
|----------|  |----------|
|-9-9--7---|  |-99999999-|
|-9-9--7-7-|  |-99999999-|
|-7-7--5-7-|  |-77777777-|
|--------5-|  |----------|

Verse
|---------------------------------|x4
|---------------------------------|
|-------------------------7-7-7-7-|
|-6/7-7-7-7-7-7-7--5-5-5--7-7-7-7-|
|-6/7-7-7-7-7-7-7--5-5-5--5-5-5-5-|
|-4/5-5-5-5-5-5-5--3-3-3----------|

Bridge
|--------------------------|x4
|--------------------------|
|----66-77-66-----44-55-44-|
|-77-66-77-66--55-44-55-44-|
|-77-44-55-44--55-22-33-22-|
|-55-----------33----------|

Verse
|---------------------------------|x4
|---------------------------------|
|-------------------------7-7-7-7-|
|-6/7-7-7-7-7-7-7--5-5-5--7-7-7-7-|
|-6/7-7-7-7-7-7-7--5-5-5--5-5-5-5-|
|-4/5-5-5-5-5-5-5--3-3-3----------|

Outro
|----------|x7|-------|x1
|----------|  |-------|
|-9-9--7---|  |-------|
|-9-9--7-7-|  |-6/7-7-|
|-7-7--5-7-|  |-6/7-7-|
|--------5-|  |-4/5-5-|

This sounds pretty accurate so have fun!


Tap to rate this tab
 
# A B C D E F G H I J K L M N O P Q R S T U V W X Y Z