Green Day - Church On Sunday tab

I believe this tab is completely accurate, at least this is how
billie plays it live

Song - Church On Sunday
Band - Green Day
Album - Warning
Tabbed By GREENholiDAY1

Standard Tuning

INTRO
e---------------2-222-------|
B-2-222-222-222-3-333-------|
G-2-222-222-222-2-222-1-111-|
D-2-222-222-222-0-000-2-222-|
A-0-000-000-000-------2-222-|
E---------------------0-000-|x2

VERSE
e---------------2-222-------|
B-2-222-222-222-3-333-------|
G-2-222-222-222-2-222-1-111-|
D-2-222-222-222-0-000-2-222-|
A-0-000-000-000-------2-222-|
E---------------------0-000-|x4

PRE-CHORUS
e-------------------------------------------|
B-----------------------------9-999-999-999-|
G-----------------------------9-999-999-999-|
D-4-444-444-444-7-777-777-777-7-777-777-777-|
A-4-444-444-444-7-777-777-777---------------|
E-2-222-222-222-5-555-555-555---------------|x2

CHORUS
e------------------|
B------------------|
G----------777-999-|
D-7-777-77-777-999-|
A-7-777-77-555-777-|
E-5-555-55---------|x3

and end on
e-------------------|
B-------------------|
G----------99999999-|
D-7-777-77-99999999-|
A-7-777-77-77777777-|
E-5-555-55----------|

PRE-VERSE
e---------------2-222-------|
B-2-222-222-222-3-333-------|
G-2-222-222-222-2-222-1-111-|
D-2-222-222-222-0-000-2-222-|
A-0-000-000-000-------2-222-|
E---------------------0-000-|x2

VERSE 2
e---------------2-222-------|
B-2-222-222-222-3-333-------|
G-2-222-222-222-2-222-1-111-|
D-2-222-222-222-0-000-2-222-|
A-0-000-000-000-------2-222-|
E---------------------0-000-|x4

PRE-CHORUS 2
e-------------------------------------------|
B-----------------------------9-999-999-999-|
G-----------------------------9-999-999-999-|
D-4-444-444-444-7-777-777-777-7-777-777-777-|
A-4-444-444-444-7-777-777-777---------------|
E-2-222-222-222-5-555-555-555---------------|x2

CHORUS 2
e------------------|
B------------------|
G----------777-999-|
D-7-777-77-777-999-|
A-7-777-77-555-777-|
E-5-555-55---------|x3

once again end on
e-------------------|
B-------------------|
G----------99999999-|
D-7-777-77-99999999-|
A-7-777-77-77777777-|
E-5-555-55----------|

BRIDGE
e-------------------2-222-------|
B-2222-3-22222-3-2--3-333-------|
G-2222-2-22222-2-2--2-222-1-111-|
D-2222-2-22222-2-2--0-000-2-222-|
A-------------------------2-222-|
E-------------------------0-000-|x4

e-------------------------------------|
B-------------------------------------|
G-------77x7--99x9-------77x7---------|
D-77x7--77x7--99x9-77x7--77x7--22x22--|
A-77x7--55x5--77x7-77x7--55x5--22x22--|
E-55x5-------------55x5--------00x00--|

CHORUS
e------------------|
B------------------|
G----------777-999-|
D-7-777-77-777-999-|
A-7-777-77-555-777-|
E-5-555-55---------|X3

e-------------------|
B-------------------|
G----------99999999-|
D-7-777-77-99999999-|
A-7-777-77-77777777-|
E-5-555-55----------|

REPEAT CHORUS

ENDING
e---------------2-222----------|
B-2-222-222-222-3-333--------2-|
G-2-222-222-222-2-222-1-111--2-|
D-2-222-222-222-0-000-2-222--2-|
A-0-000-000-000-------2-222--0-|
E---------------------0-000----|


THATS IT THE END
Tap to rate this tab
 
# A B C D E F G H I J K L M N O P Q R S T U V W X Y Z