Song name
# A B C D E F G H I J K L M N O P Q R S T U V W X Y Z

Green Day - Tell Me When Its Time To Say I Love You tab

E --------------------------------------------------------------------------------|
B ---8--8--8--7--8--7--5--7--5--5--7--5--3--5----------------7--5-----7--5--------|
G --------------------------------------------5--0--7--4--0--------7--------7/12--|
D --------------------------------------------------------------------------------|
A --------------------------------------------------------------------------------|
E --------------------------------------------------------------------------------|

E --------------------------------------------------------------------------------|
B ---8--8--8--7--8--7--5--7--5--5--7--5--3--5----------------7--5-----7--5--------|
G --------------------------------------------5--0--7--4--0--------7--------7--5--|
D --------------------------------------------------------------------------------|
A --------------------------------------------------------------------------------|
E --------------------------------------------------------------------------------|
Tap to rate this tab
 
# A B C D E F G H I J K L M N O P Q R S T U V W X Y Z