Song name
# A B C D E F G H I J K L M N O P Q R S T U V W X Y Z

Green Day - Cigarettes And Valentines tab

----------------------------------------------------------------------------
	Cigarettes and Valentines - Green Day v1.00
----------------------------------------------------------------------------

Tabbed by: LukyllRecrods
Email: lfechne@gmail.com
Tuning: Standard

- My first Tabs but I think they’re right

Intro:
e|------------------|x3|---------------------------------------|to next row|
B|------------------|x3|---------------------------------------|to next row|
G|--------------9-99|x3|6666666666666666444------444-----------|to next row|
D|-4-4-444-9-99-9-99|x3|6666666666666666444-4----444-4-------- |to next row|
A|-4-4-444-9-99-7-77|x3|4444444444444444222-4----222-4---------|to next row|
E|-2-2-222-7-77-----|x3|--------------------2--------2---------|to next row|

e|------------------------------|to next row|------------------------------|
B|------------------------------|to next row|------------------------------|
G|-------------1-1-111-6-666666-|to next row|------------------------------|
D|----4--------2-2-222-6-666666-|to next row|------------------------------|
A|----4--------2-2-222-4-444444-|to next row|------------------------------|
E|----2--------0-0-000----------|to next row|------------------------------|

Verse:
e|-------------------------------------------------------------------|-----|
B|-------------------------------------------------------------------|-----|
G|----------------1-1-111---------------------------1-1-111----------|whole|
D|4-4-4444-444444-2-2-222-4-444444--4-4-4444-444444-2-2-222-4-444444-|row--|
A|4-4-4444-444444-2-2-222-4-444444--4-4-4444-444444-2-2-222-4-444444-|x3---|
E|2-2-2222-222222-0-0-000-2-222222--2-2-2222-222222-0-0-000-2-222222-|-----|

Intro 2:
e|-------------------|x3|----------------|to next row|---------------------|
B|-------------------|x3|----------------|to next row|---------------------|
G|---------------9-99|x3|6666666666666666|to next row|---------------------|
D|--4-4-444-9-99-9-99|x3|6666666666666666|to next row|---------------------|
A|--4-4-444-9-99-7-77|x3|4444444444444444|to next row|---------------------|
E|--2-2-222-7-77-----|x3|----------------|to next row|---------------------|

Then Verse again (Row only x2):
e|-------------------------------------------------------------------|-----|
B|-------------------------------------------------------------------|-----|
G|----------------1-1-111---------------------------1-1-111----------|whole|
D|4-4-4444-444444-2-2-222-4-444444--4-4-4444-444444-2-2-222-4-444444-|row--|
A|4-4-4444-444444-2-2-222-4-444444--4-4-4444-444444-2-2-222-4-444444-|x2---|
E|2-2-2222-222222-0-0-000-2-222222--2-2-2222-222222-0-0-000-2-222222-|-----|

Chorus:
e|------------------|x3|--------------------------|to next row|------------|
B|------------------|x3|--------------------------|to next row|------------|
G|-4-4-111----------|x3|1-1-111-6-666666-66666666-|to next row|------------|
D|-4-4-222-4-444444-|x3|2-2-222-6-666666-66666666-|to next row|------------|
A|-2-2-222-4-444444-|x3|2-2-222-4-444444-44444444-|to next row|------------|
E|-----000-2-444444-|x3|0-0-000-------------------|to next row|------------|

Solo accompaniment (Billie Joe, Guitar 1):

Play Verse row two times!!!

Solo (Jason White, Guitar 2)
e|----------------------------------------------------|to next row|--------|
B|----------------------------------------------------|to next row|--------|
G|--11-111111111110-111111111111-9-8-64-11-1111111111-|to next row|--------|
D|--x--x-x-x-x-x-x--x-x-x-x-x-x--x-x-xx-x--x-x-x-x-x--|to next row|--------|
A|--9--9-9-9-9-9-8--7-7-7-7-7-7--7-6-42-9--9-9-9-9-9--|to next row|--------|
E|----------------------------------------------------|to next row|--------|

e|------------------------------------------------------|to next row|------|
B|-------------------------------------- ---------------|to next row|------|
G|11-111111111110-111111111111-9-9-10101013111111111111-|to next row|------|
D|x--x-x-x-x-x-x--x-x-x-x-x-x--x-x-x-x-x-x-x-x-x-x-x-x--|to next row|------|
A|9--9-9-9-9-9-8--7-7-7-7-7-7--7-7-8-8-8-119-9-9-9-9-9--|to next row|------|
E|------------------------------------------------------|to next row|------|

e|----------------------------------------------------|to next row|--------|
B|----------------------------------------------------|to next row|--------|
G|--11-111111111110-111111111111-9-8-64-11-1111111111-|to next row|--------|
D|--x--x-x-x-x-x-x--x-x-x-x-x-x--x-x-xx-x--x-x-x-x-x--|to next row|--------|
A|--9--9-9-9-9-9-8--7-7-7-7-7-7--7-6-42-9--9-9-9-9-9--|to next row|--------|
E|----------------------------------------------------|to next row|--------|

e|------------------------------------------------------|to next row|------|
B|-------------------------------------- ---------------|to next row|------|
G|11-111111111110-111111111111-9-9-10101011111111111111-|to next row|------|
D|x--x-x-x-x-x-x--x-x-x-x-x-x--x-x-x-x-x-x-x-x-x-x-x-x--|to next row|------|
A|9--9-9-9-9-9-8--7-7-7-7-7-7--7-7-8-8-8-9-9-9-9-9-9-9--|to next row|------|
E|------------------------------------------------------|to next row|------|

Then Chorus 2:
e|------------------|x3|-----------------|to next row|---------------------|
B|------------------|x3|-----------------|to next row|---------------------|
G|-4-4-111----------|x3|1-1-111-6-666666-|to next row|---------------------|
D|-4-4-222-4-444444-|x3|2-2-222-6-666666-|to next row|---------------------|
A|-2-2-222-4-444444-|x3|2-2-222-4-444444-|to next row|---------------------|
E|-----000-2-444444-|x3|0-0-000----------|to next row|---------------------|

e|------------------|x3|--------------------------|to next row|------------|
B|------------------|x3|--------------------------|to next row|------------|
G|-4-4-111----------|x3|1-1-111-6-666666-66666666-|to next row|------------|
D|-4-4-222-4-444444-|x3|2-2-222-6-666666-66666666-|to next row|------------|
A|-2-2-222-4-444444-|x3|2-2-222-4-444444-44444444-|to next row|------------|
E|-----000-2-444444-|x3|0-0-000-------------------|to next row|------------|

Last Outro/Intro:
e|------------------|x3|-----------------------------------------------|End|
B|------------------|x3|-----------------------------------------------|End|
G|--------------9-99|x3|6666666666666666444------444-------------------|End|
D|-4-4-444-9-99-9-99|x3|6666666666666666444-4----444-4-----------------|End|
A|-4-4-444-9-99-7-77|x3|4444444444444444222-4----222-4-----------------|End|
E|-2-2-222-7-77-----|x3|--------------------2--------2-----------------|End|


************************************
| /   slide up
| \   slide down
| h   hammer-on
| p   pull-off
| ~   vibrato
| +   harmonic
| x   Mute note
| b   Bend
| pb  Pre-bend
| br  Bend release
| pbr Pre-bend release
| brb Bend release bend
************************************

Tap to rate this tab
 
# A B C D E F G H I J K L M N O P Q R S T U V W X Y Z