Song name
# A B C D E F G H I J K L M N O P Q R S T U V W X Y Z

Green Day - Cigarettes And Valentines tab

e|-------------------------------------------------------------------------------|
B|--11---11--11-11-11--11--11-12-11--9--9h11-11----------------------------------|
G|--11---11--11-11-11--11--11-11-11--11-11---11--9-8-6-4-11-11-11-11-11-11-11-11-|
D|-----------------------------------------------x-x-x-x-x--x--x--x--x--x--x--x--|
A|-----------------------------------------------7-6-4-2-9--9--9--9--9--9--9--9--|
E|-------------------------------------------------------------------------------|

e|-------------------------------------------------------------------------------|
B|--11---11--11-11-11--11--11-12-11--9--9h11-11----------------------------------|
G|--11---11--11-11-11--11--11-11-11--11-11---11--9---9--9-9-9-10---13------------|
D|-----------------------------------------------x---x--x-x-x-x----x-------------|  Solo x2
A|-----------------------------------------------7---7--7-7-7-8----11------------|
E|-------------------------------------------------------------------------------|
Tap to rate this tab
 
# A B C D E F G H I J K L M N O P Q R S T U V W X Y Z