Song name
# A B C D E F G H I J K L M N O P Q R S T U V W X Y Z

Green Day - Fod tab

yeah.
HWTM=however many times needed

Intro/First verse Acoustic:
E|-4-4-4-6-------------|However may times needed
A|-6-6-6-6-------------|
D|-6-6-6-6-------------|
G|---------------------|
B|---------------------|
e|---------------------|

E|-2-2-2-2-------------|However many times needed
A|-4-4-2-2-------------|
D|-4-4-4-4-------------|
G|---------------------|
B|---------------------|
e|---------------------|

Chorus Thing:
E|-----2x5----4x5-6x5-|----2x5--------|Repeat twice
A|-6x5-4--4x5-6---8---|6x5-4---4xHWTM-|
D|-8---4--6---6---8---|8---4---6------|
G|-8------6-----------|8-------6------|
B|--------------------|---------------|
e|--------------------|---------------|

Repeat Intro/First Verse

Don't know what to call this part.
E|--------|Repeat however many times needed
A|-4-4-4-4|
D|-6-6-6-6|
G|-6-6-6-6|
B|--------|
e|--------|

Second Verse
Re verb On
E|-4-----2x4-----4x4-|
A|-6-4-3-4---4-3-6---|
D|-6-6-5-4---6-5-6---|
G|---6-5-----6-5-----|
B|-------------------|
e|-------------------|

Then just play the Chorus with the Re Verb on,
then play the part second verse with re verb on

End On
E|-4-|Let Ring
A|-6-|
D|-6-|
G|---|
B|---|
e|---|

Song Order:
Acoustic Guitar-
Intro/First Verse
Chorus
Intro/First Verse
Part I don't know what to call
Electric Guitar w/re verb-
Second Verse
Chorus
Second Verse
Ending Note

Lyrics:
something's on my mind
it's been for quite some time
this time i'm on to you
so where's the other face?
the face i heard before
your head trip's boring me

lets nuke the bridge we torched two thousand times before
this time we'll blast it all to hell
i've had this burning in my guts now for so long
my belly's aching now to say...

stuck down in a rut
of dislogic and smut
a side of you well hid
when it's all said and done
it's real and it's been fun
but was it all REAL fun?

lets nuke the bridge we torched two thousand times before
this time we'll blast it all to hell
i've had this burning in my guts now for so long
my belly's aching now to say..say..

you're just a fuck
i can't explain it 'cause i think you suck
im taking pride
in telling you to fuck off and die

i've had this burning in my guts now for so long
my belly's aching now to say
i've taken pleasure in the masochistic youth
so listen up cause you might miss..

you're just a fuck
i can't explain it 'cause i think you suck
im taking pride
in telling you to fuck off and die

good night
Tap to rate this tab
 
# A B C D E F G H I J K L M N O P Q R S T U V W X Y Z