Song name
# A B C D E F G H I J K L M N O P Q R S T U V W X Y Z

Green Day - Church On Sunday tab

Hiya! First full song I've tabbed. I used Guitar Pro 5 for this, and here's the text 
Intermediate tab difficulty, because knowledge of half/quarter/eighth notes greatly enhance 
And for the repeats.

I'm not sure if there's one just like this submitted by "anonymous"... forgot to log in. ^^;

I believe I have it nearly 100%. Only my first tab, but I'll get better.

It's straightforward. Linear, just go down and go through it - no scrolling back up for parts.

Time: 4/4
BPM: 180

Duration Legend
---------------
W - whole
H - half
Q - quarter
E - 8th
S - 16th
T - 32nd
X - 64th
. - note dotted
|-n-|  - n-tuplets

Intro
      Q    E  E  E  E  E  E     E  E  E  E  E  E  E  E
E||--------------------------|--------------------------|
B||x2------------------------|--------------------------|
G||*-------------------------|--------------------------|
D||*--7----7--7--7--7--7--7--|--7--7--7--7--7--7--7--7--|
A||---7----7--7--7--7--7--7--|--7--7--7--7--7--7--7--7--|
E||---5----5--5--5--5--5--5--|--5--5--5--5--5--5--5--5--|


  Q    E  E  E  E  E  E     Q    E  E  E  E  E  E
-------------------------|--------------------------||
-------------------------|--------------------------||
--7----7--7--7--7--7--7--|--9----9--9--9--9--9--9--*||
--7----7--7--7--7--7--7--|--9----9--9--9--9--9--9--*||
--5----5--5--5--5--5--5--|--7----7--7--7--7--7--7---||
-------------------------|--0----0--0--0--0--0--0---||

Verse
   Q    E  E  E  E  E  E     E  E  E  E  E  E  E  E     Q    E  E  E  E  E  E
--------------------------|--------------------------|-------------------------|
x2------------------------|--------------------------|-------------------------|
*-------------------------|--------------------------|--7----7--7--7--7--7--7--|
*--7----7--7--7--7--7--7--|--7--7--7--7--7--7--7--7--|--7----7--7--7--7--7--7--|
---7----7--7--7--7--7--7--|--7--7--7--7--7--7--7--7--|--5----5--5--5--5--5--5--|
---5----5--5--5--5--5--5--|--5--5--5--5--5--5--5--5--|-------------------------|

                            Prechorus
  Q    E  E  E  E  E  E        Q    E  E  E  E  E  E
--------------------------||--------------------------|
--------------------------||x2------------------------|
--9----9--9--9--9--9--9--*||*-------------------------|
--9----9--9--9--9--9--9--*||*--4----4--4--4--4--4--4--|
--7----7--7--7--7--7--7---||---4----4--4--4--4--4--4--|
--------------------------||---2----2--2--2--2--2--2--|


  Q    E  E  E  E  E  E     Q    E  E  E  E  E  E     Q    E  E  E  E  E  E
-------------------------|-------------------------|--------------------------||
-------------------------|-------------------------|--------------------------||
--7----7--7--7--7--7--7--|--9----9--9--9--9--9--9--|--9----9--9--9--9--9--9--*||
--7----7--7--7--7--7--7--|--9----9--9--9--9--9--9--|--9----9--9--9--9--9--9--*||
--5----5--5--5--5--5--5--|--7----7--7--7--7--7--7--|--7----7--7--7--7--7--7---||
-------------------------|--0----0--0--0--0--0--0--|--0----0--0--0--0--0--0---||

Chorus
   Q    E  E  E  E  E  E     Q    E  E  Q    E  E   3x  Q    E  E  E  E  E  E
--------------------------|-------------------------||-------------------------|
x3------------------------|-------------------------||-------------------------|
*-------------------------|--7----7--7--9----9--9--*||-------------------------|
*--7----7--7--7--7--7--7--|--7----7--7--9----9--9--*||--7----7--7--7--7--7--7--|
---7----7--7--7--7--7--7--|--5----5--5--7----7--7---||--7----7--7--7--7--7--7--|
---5----5--5--5--5--5--5--|-------------------------||--5----5--5--5--5--5--5--|

Bridge
  E  E  E  E  E  E  E  E     Q    E  E  E  E  E  E     E  E  E  E  E  E  E  E
--------------------------|-------------------------|--------------------------|
--------------------------|-------------------------|--------------------------|
--------------------------|-------------------------|--------------------------|
--9--9--9--9--9--9--9--9--|--7----7--7--7--7--7--7--|--7--7--7--7--7--7--7--7--|
--7--7--7--7--7--7--7--7--|--7----7--7--7--7--7--7--|--7--7--7--7--7--7--7--7--|
--0--0--0--0--0--0--0--0--|--5----5--5--5--5--5--5--|--5--5--5--5--5--5--5--5--|

                                                     Verse
  Q    E  E  E  E  E  E     Q    E  E  E  E  E  E       Q    E  E  E  E  E  E
-------------------------|-------------------------||--------------------------|
-------------------------|-------------------------||x4------------------------|
--7----7--7--7--7--7--7--|--9----9--9--9--9--9--9--||*-------------------------|
--7----7--7--7--7--7--7--|--9----9--9--9--9--9--9--||*--7----7--7--7--7--7--7--|
--5----5--5--5--5--5--5--|--7----7--7--7--7--7--7--||---7----7--7--7--7--7--7--|
-------------------------|--0----0--0--0--0--0--0--||---5----5--5--5--5--5--5--|


  E  E  E  E  E  E  E  E     Q    E  E  E  E  E  E
--------------------------|-------------------------|
--------------------------|-------------------------|
--------------------------|--7----7--7--7--7--7--7--|
--7--7--7--7--7--7--7--7--|--7----7--7--7--7--7--7--|
--7--7--7--7--7--7--7--7--|--5----5--5--5--5--5--5--|
--5--5--5--5--5--5--5--5--|-------------------------|

                            Prechorus
  Q    E  E  E  E  E  E        Q    E  E  E  E  E  E
--------------------------||--------------------------|
--------------------------||x2------------------------|
--9----9--9--9--9--9--9--*||*-------------------------|
--9----9--9--9--9--9--9--*||*--4----4--4--4--4--4--4--|
--7----7--7--7--7--7--7---||---4----4--4--4--4--4--4--|
--------------------------||---2----2--2--2--2--2--2--|


  Q    E  E  E  E  E  E     Q    E  E  E  E  E  E     Q    E  E  E  E  E  E
-------------------------|-------------------------|--------------------------||
-------------------------|-------------------------|--------------------------||
--7----7--7--7--7--7--7--|--9----9--9--9--9--9--9--|--9----9--9--9--9--9--9--*||
--7----7--7--7--7--7--7--|--9----9--9--9--9--9--9--|--9----9--9--9--9--9--9--*||
--5----5--5--5--5--5--5--|--7----7--7--7--7--7--7--|--7----7--7--7--7--7--7---||
-------------------------|--0----0--0--0--0--0--0--|--0----0--0--0--0--0--0---||

Chorus
   Q    E  E  E  E  E  E     Q    E  E  Q    E  E       Q    E  E  E  E  E  E
--------------------------|-------------------------||-------------------------|
x3------------------------|-------------------------||-------------------------|
*-------------------------|--7----7--7--9----9--9--*||-------------------------|
*--7----7--7--7--7--7--7--|--7----7--7--9----9--9--*||--7----7--7--7--7--7--7--|
---7----7--7--7--7--7--7--|--5----5--5--7----7--7---||--7----7--7--7--7--7--7--|
---5----5--5--5--5--5--5--|-------------------------||--5----5--5--5--5--5--5--|


  E  E  E  E  E  E  E  E       Q    E  E  E  E  E  E
--------------------------||--------------------------|
--------------------------||x3------------------------|
--------------------------||*-------------------------|
--9--9--9--9--9--9--9--9--||*--7----7--7--7--7--7--7--|
--7--7--7--7--7--7--7--7--||---7----7--7--7--7--7--7--|
--0--0--0--0--0--0--0--0--||---5----5--5--5--5--5--5--|


  Q    E  E  Q    E  E       Q    E  E  E  E  E  E     E  E  E  E  E  E  E  E
-------------------------||-------------------------|--------------------------|
-------------------------||-------------------------|--------------------------|
--7----7--7--9----9--9--*||-------------------------|--------------------------|
--7----7--7--9----9--9--*||--7----7--7--7--7--7--7--|--9--9--9--9--9--9--9--9--|
--5----5--5--7----7--7---||--7----7--7--7--7--7--7--|--7--7--7--7--7--7--7--7--|
-------------------------||--5----5--5--5--5--5--5--|--0--0--0--0--0--0--0--0--|

Instrumental
    Q    E  E  E  E  Q       Q    E  E  Q    Q       Q    E  E  E  E  E  E
|-------------------------|-----------------------|-------------------------|
|x4-2----2--2--3--2--3----|--2----2--2--2----2----|--7----7--7--7--7--7--7--|
|*--2----2--2--2--2--2----|--2----2--2--2----2----|--7----7--7--7--7--7--7--|
|*--2----2--2--2--2--2----|--2----2--2--2----2----|--7----7--7--7--7--7--7--|
|---0----0--0--0--0--0----|--0----0--0--0----0----|--5----5--5--5--5--5--5--|
|-------------------------|-----------------------|-------------------------|


  Q    E  E  E  E  E  E   4x  S S                           W
--------------------------||-----------------------|-------------------|
-------------9--9--9--9---||-----------------------|-------------------|
--9----9--9--9--9--9--9--*||-----------------------|-------------------|
--9----9--9--9--9--9--9--*||--7-7------------------|-------------------|
--7----7--7--7--7--7--7---||--7-7----let ring------|-continue let ring-|
--0----0--0--0--0--0--0---||--5-5------------------|-------------------|


  S S                     S S                     S S
-----------------------|-----------------------|-----------------------|
-----------------------|-----------------------|-----------------------|
--7-7------------------|--9-9------------------|-----------------------|
--7-7------------------|--9-9------------------|--7-7------------------|
--5-5---let ring-------|--7-7------let ring----|--7-7----let ring------|
-----------------------|-----------------------|--5-5------------------|


  W                   S S                     E  E  E  E  E  E  E  E
-------------------|-----------------------|--------------------------|
-------------------|-----------------------|--------------------------|
-------------------|--7-7------------------|--------------------------|
-------------------|--7-7------------------|--2--2--2--2--2--2--2--2--|
-continue let ring-|--5-5------------------|--2--2--2--2--2--2--2--2--|
-------------------|-----------------------|--0--0--0--0--0--0--0--0--|


    Q    E  E  E  E  E  E     Q    E  E  Q    E  E
|--------------------------|------------------------|
|x3------------------------|------------------------|
|*-------------------------|--7----7--7--9----9--9--|
|*--7----7--7--7--7--7--7--|--7----7--7--9----9--9--|
|---7----7--7--7--7--7--7--|--5----5--5--7----7--7--|
|---5----5--5--5--5--5--5--|------------------------|


  Q    E  E  E  E  E  E       E  E  E  E  E  E  E  E
--------------------------||--------------------------|
--------------------------||--------------------------|
-------------------------*||--------------------------|
--7----7--7--7--7--7--7--*||--9--9--9--9--9--9--9--9--|
--7----7--7--7--7--7--7---||--7--7--7--7--7--7--7--7--|
--5----5--5--5--5--5--5---||--0--0--0--0--0--0--0--0--|


  Q    E  E  E  E  E  E     E  E  E  E  E  E  E  E     Q    E  E  E  E  E  E
-------------------------|--------------------------|-------------------------|
-------------------------|--------------------------|-------------------------|
-------------------------|--7--7--7--7--9--9--9--9--|-------------------------|
--7----7--7--7--7--7--7--|--7--7--7--7--9--9--9--9--|--7----7--7--7--7--7--7--|
--7----7--7--7--7--7--7--|--5--5--5--5--7--7--7--7--|--7----7--7--7--7--7--7--|
--5----5--5--5--5--5--5--|--------------------------|--5----5--5--5--5--5--5--|


  Q    E  E  Q    E  E     Q    E  E  E  E  E  E     Q    E  E  Q    E  E
------------------------|-------------------------|------------------------|
------------------------|-------------------------|------------------------|
--7----7--7--9----9--9--|-------------------------|--7----7--7--9----9--9--|
--7----7--7--9----9--9--|--7----7--7--7--7--7--7--|--7----7--7--9----9--9--|
--5----5--5--7----7--7--|--7----7--7--7--7--7--7--|--5----5--5--7----7--7--|
------------------------|--5----5--5--5--5--5--5--|------------------------|

Outro
  Q    E  E  E  E  E  E     E  E  E  E  E  E  E  E     Q    E  E  E  E  E  E
-------------------------|--------------------------|-------------------------|
-------------------------|--------------------------|-------------------------|
-------------------------|--------------------------|-------------------------|
--7----7--7--7--7--7--7--|--9--9--9--9--9--9--9--9--|--7----7--7--7--7--7--7--|
--7----7--7--7--7--7--7--|--7--7--7--7--7--7--7--7--|--7----7--7--7--7--7--7--|
--5----5--5--5--5--5--5--|--0--0--0--0--0--0--0--0--|--5----5--5--5--5--5--5--|


  E  E  E  E  E  E  E  E     E  E  E  E  E  E  E  E
--------------------------|--------------------------|
--------------------------|--------------------------|
--------------------------|--9--9--9--9--9--9--9--9--|
--9--9--9--9--9--9--9--9--|--9--9--9--9--9--9--9--9--|
--7--7--7--7--7--7--7--7--|--7--7--7--7--7--7--7--7--|
--0--0--0--0--0--0--0--0--|--------------------------|


  E  E  E  E  E  E  E  E
--------------------------||
--------------------------||
--9--9--9--9--9--9--9-----||
--9--9--9--9--9--9--9--7--||
--7--7--7--7--7--7--7--7--||
-----------------------5--|| let the last chord ring
Tap to rate this tab
 
# A B C D E F G H I J K L M N O P Q R S T U V W X Y Z