Song name
# A B C D E F G H I J K L M N O P Q R S T U V W X Y Z

Green Day - Dont Wanna Fall In Love tab

I notices that their were no correct versions of this individual song, so i decided to 
this tab from Liams shenanigans album, props to him, please post comments or corrections 
the message board.


Order

Main Riff x12
Riff 2
Main Riff x2
Chorus
Main Riff x10
Riff 2
Main Riff x2
Chorus
Main Riff x3
Solo x2
Chorus
Main Riff x2
Chorus
Main Riff x2
Outro
Main Riff x4

Main Riff
e|---------------------------------------------------------------------------|
B|---------------------------------------------------------------------------|
G|-8-8-8-8-8-8-8-X-8-8-------------------------------------------------------|
D|-8-8-8-8-8-8-8-X-8-8-------------------------------------------------------|
A|-6-6-6-6-6-6-6-X-6-6-------------------------------------------------------|
E|---------------------------------------------------------------------------|

Riff 2
e|-----------------------------------------------------------------------|
B|-----------------------------------------------------------------------|
G|-----------------------------------------------------------------------|
D|-6-6-6-6-6-6-6-6-6-----------------------------------------------------|
A|-6-6-6-6-6-6-6-6-6-----------------------------------------------------|
E|-4-4-4-4-4-4-4-4-4-----------------------------------------------------|

Chorus
e|-----------------------------------------------------------------------|
B|-----------------------------------------------------------------------|
G|--------------------8--------------------------------------------------|
D|-6-6-6-6-6-6-6-6-6--8--------------------------------------------------|
A|-6-6-6-6-6-6-6-6-6--6--------------------------------------------------|
E|-4-4-4-4-4-4-4-4-4-----------------------------------------------------|

Solo
e|-----------------------------------------------------------------------------|
B|------1---------------1-----------------1--------------1------------1--------|
G|3-3-3---3-3-0---3-3-3---3-0---3-3-3-3-3---3-3-0--3-3-3---3-0--3-3-3---3-0--3-|
D|-----------------------------------------------------------------------------|
A|-----------------------------------------------------------------------------|
E|-----------------------------------------------------------------------------|

e|-------------2-1----------------------------15-14-12-4/11--------------|
B|--------1-4------4--1--------------------------------------------------|
G|-1-1-1-----------------3----8-8-8-8-8-X-8-8----------------------------|
D|----------------------------8-8-8-8-8-X-8-8----------------------------|
A|----------------------------6-6-6-6-6-X-6-6----------------------------|
E|-----------------------------------------------------------------------|

Outro
e|-----------------------------------------------------------------------|
B|-----------------------------------------------------------------------|
G|--------------------8-8-8-8--------------------------------------------|
D|-6-6-6-6-6-6-6-6-6--8-8-8-8--6-8---------------------------------------|
A|-6-6-6-6-6-6-6-6-6--6-6-6-6--6-8---------------------------------------|
E|-4-4-4-4-4-4-4-4-4-----------4-6---------------------------------------|
Tap to rate this tab
# A B C D E F G H I J K L M N O P Q R S T U V W X Y Z