Song name
# A B C D E F G H I J K L M N O P Q R S T U V W X Y Z

Green Day - Give Me Novacaine tab

So this is my first tabbing, i noticed the best rated solo for this song isn't quite 
accurate, so i decided to post a more accurate sounding solo. Enjoy!

e|--------------4---4-5-5-4---------------------9-----------|
B|--------------------------7---------10---10-----10-9------|
G|---------6-6----6----------------------9----9-------------|
D|-------4-----------------------7-7------------------------|
A|----------------------------------------------------------|
E|--/12-----------------------------------------------------|
Do this first part ^ 3x, then...

e|-------------------10----10-------------------------------|
B|----------12----12----------12-----12-12-12---------------|
G|-------------11---------------11---11-11-11---------------|
D|---9-9----------------------------------------------------|
A|----------------------------------------------------------|
E|----------------------------------------------------------|

e|----------------------------------------------------------|
B|--9-9-9-9--10-10-10-10--12-12-12-12-12-12-12-12-12--------|
G|--9-9-9-9--9--9--9--9---9--9--9--9--9--9--9--9--9---------|
D|----------------------------------------------------------|
A|----------------------------------------------------------|
E|----------------------------------------------------/12---|

Thats it, hope I helped!
Tap to rate this tab
 
# A B C D E F G H I J K L M N O P Q R S T U V W X Y Z