Green Day - Good Riddance Time Of Your Life tab

By Anacckandah


E|------3---------|--------3--------|--------3-------|------3--------|
B|--------3----3--|----------3---3--|----------3---3-|--------3---3--|
G|-----------0----|------------0----|------------0---|-----2----2----|
D|----0-----------|-------0---------|------2---------|---0-----------|
A|----------------|-----------------|----3-----------|---------------|
E|------3---------|------3----------|----------------|---------------|

E|------3---------|--------3--------|--------3-------|------3--------|
B|--------3----3--|----------3---3--|----------3---3-|--------3---3--|
G|-----------0----|------------0----|------------0---|-----2----2----|
D|----0-----------|-------0---------|------2---------|---0-----------|
A|----------------|-----------------|----3-----------|---------------|
E|------3---------|------3----------|----------------|---------------|

E|------3---------|--------3--------|--------3-------|------3--------|
B|--------3----3--|----------3---3--|----------3---3-|--------3---3--|
G|-----------0----|------------0----|------------0---|-----2----2----|
D|----0-----------|-------0---------|------2---------|---0-----------|
A|----------------|-----------------|----3-----------|---------------|
E|--2-------------|---2-------------|----------------|---------------|

E|------3---------|--------3--------|--------3-------|------3--------|
B|--------3----3--|----------3---3--|----------3---3-|--------3---3--|
G|-----------0----|------2-----2----|------------0---|----------0----|
D|----0-----------|----0------------|-----0----------|------2--------|
A|----------------|-----------------|----------------|----3----------|
E|--2-------------|-----------------|---2------------|---------------|

E|------3---------|--------3--------|--------3-------|------3--------|
B|--------3----3--|----------3---3--|----------3---3-|--------3---3--|
G|-----------0----|------------0----|------------0---|-----2----2----|
D|----0-----------|----0------------|-----0----------|---0-----------|
A|----------------|-----------------|----------------|---------------|
E|--2-------------|----3------------|---2------------|---------------|
Tap to rate this tab
 
# A B C D E F G H I J K L M N O P Q R S T U V W X Y Z