Green Day - Cigarettes And Valentines tab

Tabs for Cigarettes and Valentines, from Awesome as Fuck!!  I figured this out while 
playing My Generation by The Who...(its pretty fuckin easy)


E-------3--1-----|
A-------5--3--3--|
D-------5--3--5--| x1
G-------------5--|
B----------------|
e----------------|


E-------3--1---------|
A-------5--3--3--5---|
D-------5--3--5-- 7--|
G-------------5--7---|
B--------------------|
e--------------------|


E-------1--3-----|
A-------3--5-----|
D-------3--5-----|  x2
G----------------|
B----------------|
e----------------|
Tap to rate this tab
 
# A B C D E F G H I J K L M N O P Q R S T U V W X Y Z