Song name
# A B C D E F G H I J K L M N O P Q R S T U V W X Y Z

Green Day - 21 Guns tab

Hey guys,
this is the solo to 21 Guns,
please don't be harsh on me because this is my first tab,
if there is any problems with it or you want me to make another one, e-mail me at:
tr1freak@me.com
thanks.


e--------------------------------------------------------------------------------------|
B--10--10------8--10-------------------------------------------------------------------|
G----------10---------10--10-----9--10-----7--7-----------------------9--9--10--12-----|
D-----------------------------10----------------------10--8--7--7----------------------|
A---------------------------------------10--------10---------------10------------------|
E--------------------------------------------------------------------------------------|

e--------------------------------------------------------------------------------------|
B--10--10------8--10-------------------------------------------------------------------|
G----------10---------10--10-----9--10-----7--7-----------------------9--9--10--12-----|
D-----------------------------10----------------------10--8--7--7----------------------|
A---------------------------------------10--------10---------------10------------------|
E--------------------------------------------------------------------------------------|

e--------------------------------------------------------------------------------------|
B--------------------------------------------------------------------------------------|
G--7--7--------------------------------------------------------------------------------|
D--------10--10--8--7-----9----9----9----9---------------------------------------------|
A-----------------8--------------------------------------------------------------------|
E--------------------------------------------------------------------------------------|
Tap to rate this tab
 
# A B C D E F G H I J K L M N O P Q R S T U V W X Y Z