Song name
# A B C D E F G H I J K L M N O P Q R S T U V W X Y Z

Green Day - Espionage tab

e----------------------------------------- ~
b----------------------------------- ----- ~
g-----------------------------------  ---- ~
d----------------------------------------- ~ ~    ~ Repeat this 6 times
a-----------2-2---1-1-1-0---0-0-----  ---- ~
E--0-0--3-3-----3---------3-----3-2- ----- ~

{Part B}

e----------------------------------------- ~
b----------------------------------- ----- ~
g-----------------------------------  ---- ~
d-----------2-2---1-1-1-0---0-0----------- ~ ~    ~ Repeat this 2 times
a--0-0--3-3-----3---------3-----3-2-  ---- ~
E----------------------------------- ----- ~

{Part A}

e----------------------------------------- ~
b----------------------------------- ----- ~
g-----------------------------------  ---- ~
d----------------------------------------- ~ ~    ~ Repeat this 2 times
a-----------2-2---1-1-1-0---0-0-----  ---- ~
E--0-0--3-3-----3---------3-----3-2- ----- ~


{Part C}

e------------------------------------------------------------- ~
b------------------------------------------------------------- ~
g------------------------------------------------------------- ~
d------------3-----------3---------------------2-2-2-2-2-2-2-2 ~
a--2*-2*-3*-3----2*-2*-3*-3---2*-2*-2*-2*-3-3-3-3-3-3-3-3----- ~
E------------------------------------------------------------- ~


{Part A}

e----------------------------------------- ~
b----------------------------------- ----- ~
g-----------------------------------  ---- ~
d----------------------------------------- ~ ~    ~ Repeat this 4 times
a-----------2-2---1-1-1-0---0-0-----  ---- ~
E--0-0--3-3-----3---------3-----3-2- ----- ~

{Part B}

e----------------------------------------- ~
b----------------------------------- ----- ~
g-----------------------------------  ---- ~
d-----------2-2---1-1-1-0---0-0----------- ~ ~    ~ Repeat this 2 times
a--0-0--3-3-----3---------3-----3-2-  ---- ~
E----------------------------------- ----- ~

{Part A}


e----------------------------------------- ~
b----------------------------------- ----- ~
g-----------------------------------  ---- ~
d----------------------------------------- ~ ~    ~ Repeat this 2 times
a-----------2-2---1-1-1-0---0-0-----  ---- ~
E--0-0--3-3-----3---------3-----3-2- ----- ~

{Part C}

e------------------------------------------------------------- ~
b------------------------------------------------------------- ~
g------------------------------------------------------------- ~
d------------3-----------3---------------------2-2-2-2-2-2-2-2 ~
a--2*-2*-3*-3----2*-2*-3*-3---2*-2*-2*-2*-3-3-3-3-3-3-3-3----- ~
E------------------------------------------------------------- ~

The patterns:
"Part A" x6
"Part B" x2
"Part A" x2
"Part C" x1

"Part A" x4
"Part B" x2
"Part A" x2
"Part C" x1

"Part A" x4
"Part B" x2
"Part A" x2
"Part C" x1
Tap to rate this tab
 
# A B C D E F G H I J K L M N O P Q R S T U V W X Y Z