Song name
# A B C D E F G H I J K L M N O P Q R S T U V W X Y Z

Green Day - Warning tab

Artist: Green Day
Title: Warning
Album: Warning
E-mail: 1990GreenDay2009@gmail.com

Guitar 1: Lead; Electric
Guitar 2: Rhythm; Electric-Acoustic

Intro/Verse/Chorus
e|--------------------------------|
B|--------------------------------|
G|--------------------------------|
D|---------------4-5-5-4----------|
A|-------4-5-5-7---------7-5-5-4--|
E|-5-5-7-------------------------7|
 |                                |
e|--------------------------------|
B|--------------------------------|
G|---------7-7-7-0---------7-7-7-0|
D|-7-7-7-0-7-7-7-0-5-5-5-0-7-7-7-0|
A|-7-7-7-0-5-5-5-0-5-5-5-0-5-5-5-0|
E|-5-5-5-0---------3-3-3-0--------|

Solo
e|--------------------------------------------|
B|--------------------------------------------|
G|--------------------------------------------|
D|--------------------------------------------|
A|---4-----------4---------4-----------4------|
E|-5---5-3-0-5-5---5-3-0-5---5-3-0-5-5---5-3-0|
                                              |
e|-----------------------0--------------------|
B|-----------------------2--------------------|
G|-----------------------2--------------------|
D|-----------------------2--------------------|
A|-----------------------0--------------------|
E|-----------------------x--------------------|

"Or shut up and be the victim of authority"
e|----------------|
B|----------------|
G|----------------|
D|----------------|
A|----------------|
E|-5-5----5-5----7|
 |                |
e|----------------|
B|----------------|
G|----------------|
D|-7-7----7-7----9|
A|-7-7----7-7----9|
E|-5-5----5-5----7|


__________________
Intro x4          |
Verse x8          |
Chorus x4         |
Solo              |
Intro x2          |
Verse x8          |
Chorus x8         |
Solo x3           |
Verse x3          |
"Or shut up..." x1|
Chorus x8         |
Tap to rate this tab
# A B C D E F G H I J K L M N O P Q R S T U V W X Y Z