Song name
# A B C D E F G H I J K L M N O P Q R S T U V W X Y Z

Green Day - Going To Pasalacqua tab

Going To Pasalacqua
Green Day
1,039/Smoothed Out Slappy Hours (1990)
Lyrics: Billie Joe Armstrong
Music: Green Day
Tuning: Normal
Notes: Classic Green Day style song, have fun with it.  Billie
plays all chords in open position (D (x00232), A (x02220)), but
I find it sounds fuller to play them as tabbed here.

h = hammer-on
p = pull-off
b = bend
/ = slide up
\ = slide down
5 = power chord

Intro
   A5
e|---------------------------------------------------------------|
B|---------------------------------------------------------------|
G|-6------------7p6h7p6h7p6h7p6h7--------------------------------|
D|-7-(let ring)------------------(gradually gets louder & slower)|
A|-7-------------------------------------------------------------|
E|-5-------------------------------------------------------------|

Verse
   E5   D5   A5    (x2)
e|---------------------------------------------------------------|
B|---------------------------------------------------------------|
G|------7--------------------------------------------------------|
D|-2----7----7---------------------------------------------------|
A|-2----5----7---------------------------------------------------|
E|-0---------5---------------------------------------------------|

Pre-Chorus
   D5   A5   E5   D5   A5  (x2)
e|---------------------------------------------------------------|
B|---------------------------------------------------------------|
G|-7--------------7----------------------------------------------|
D|-7----7----2----7----7-----------------------------------------|
A|-5----7----2----5----7-----------------------------------------|
E|------5----0---------5-----------------------------------------|

Chorus
   A5   E5   F#5  D5  (x2)  A5 (PM)
e|---------------------------------------------------------------|
B|---------------------------------------------------------------|
G|----------------7----------------------------------------------|
D|-7----2----4----7---------7------------------------------------|
A|-7----2----4----5---------7------------------------------------|
E|-5----0----2--------------5------------------------------------|

Bridge 
   A5   D5  (x6) A5 (PM)
e|---------------------------------------------------------------|
B|---------------------------------------------------------------|
G|------7--------------------------------------------------------|
D|-7----7--------7-----------------------------------------------|
A|-7----5--------7-----------------------------------------------|
E|-5-------------5-----------------------------------------------|


Order

Intro
Verse
Pre-Chorus
Chorus
Verse
Pre-Chorus
Chorus
Bridge
Pre-Chorus
Chorus
End on chorus chords slowing down and Intro


Lyrics

Here we go again
Infatuation touches me
Just when I thought
That it would end			(Verse)
Oh but then again
It seems much more than that
But I'm not sure exactly
What you're thinkin

Well I toss and turn all night
Thinkin of your ways of affection
But to find that			(Pre-Chorus)
It's not different at all
I throw away my past mistakes
And contemplate my future
That's when I say
What the hey!

Would you last forever
You and I together
Hand in hand we run away
Far away				(Chorus)
I'm in for nasty weather
But I'll take whatever you can give
That comes my way, yeah
Far away
Tap to rate this tab
# A B C D E F G H I J K L M N O P Q R S T U V W X Y Z