Song name
# A B C D E F G H I J K L M N O P Q R S T U V W X Y Z

Green Day - Carpe Diem tab

GREEN DAY- CARPE DIEM

this is my first tab I think it's pretty accurate for the most part I couldn't figure 
out the solo or bridge part

INTRO:
e|--------------------------------------------------------------------------|
B|--------------------------------------------------------------------------|
G|-6-6-6-6-6-----6--6-6-6-6-6-----6--6-6-6-6-6-----6--6-6-6-6-6-----6-------|
D|-6-6-6-6-6-4-6-6--6-6-6-6-6-6-4-6--6-6-6-6-6-4-6-6--6-6-6-6-6-6-4-6-------|
A|-4-4-4-4-4-4-6-4--4-4-4-4-4-6-4-4--4-4-4-4-4-4-6-4--4-4-4-4-4-6-4-4-------|
E|-----------2-4--------------4-2--------------2-4--------------4-2---------|

VERSE
e|--------------------------------------------------------------------------|
B|--------------------------------------------------------------------------|
G|---------------------------------------------6----------------------------|
D|-6-6-6-6-6-----6--6-6-6-6-6-----6--6-6-6-6-6-6--6-6-6-6-6-6-6-6-----------|
A|-4-4-4-4-4-4h6-4--4-4-4-4-4-4h6-4--4-4-4-4-4-4--6-6-6-6-6-6-6-6-----------|
E|------------------------------------------------4-4-4-4-4-4-4-4-----------|
Breaking in a sweat, Like a bomb treat, Use your silhouette Faded out

e|--------------------------------------------------------------------------|
B|--------------------------------------------------------------------------|
G|---------------------------------------------6----------------------------|
D|-6-6-6-6-6-----6--6-6-6-6-6-----6--6-6-6-6-6-6--6-6-6-6-6-6-6-6-----------|
A|-4-4-4-4-4-4h6-4--4-4-4-4-4-4h6-4--4-4-4-4-4-4--6-6-6-6-6-6-6-6-----------|
E|------------------------------------------------4-4-4-4-4-4-4-4-----------|
Nothing left to lose, Detonate the fuse, Another break and You fall out

e|--------------------------------------------------------------------------|
B|--------------------------------------------------------------------------|
G|---------------------------------------------6----------------------------|
D|-6-6-6-6-6-----6--6-6-6-6-6-----6--6-6-6-6-6-6--6-6-6-6-6-6-6-6-----------|
A|-4-4-4-4-4-4h6-4--4-4-4-4-4-4h6-4--4-4-4-4-4-4--6-6-6-6-6-6-6-6-----------|
E|------------------------------------------------4-4-4-4-4-4-4-4-----------|
Getting off a binge, Get a second wind, Another promise, Just make a change

e|--------------------------------------------------------------------------|
B|--------------------------------------------------------------------------|
G|---------------------------------------------6----------------------------|
D|-6-6-6-6-6-----6--6-6-6-6-6-----6--6-6-6-6-6-6--6-6-6-6-6-----------------|
A|-4-4-4-4-4-4h6-4--4-4-4-4-4-4h6-4--4-4-4-4-4-4--6-6-6-6-6-----------------|
E|------------------------------------------------4-4-4-4-4-----------------|
Got a Broken wing, Hear the angels sing, with a signal that's out of Range

e|---------------------------------------|
B|---------------------------------------|
G|-6------------6------------------------|
D|-6-6-6-6-6-6--6-6-6-6-6-6-6-6-6--------|
A|-4-6-6-6-6-6--4-6-6-6-6-6-6-6-6--------|
E|---4-4-4-4-4----4-4-4-4-4-4-4-4--------|
make a change, make a change

CHORUS:
e|--------------------------------------------------------------------------|
B|--------------------------------------------------------------------------|
G|-6-6-6-6-6-----6--6-6-6-6-6-----6--6-6-6-6-6-----6--6-6-6-6-6-----6-------|
D|-6-6-6-6-6-4-6-6--6-6-6-6-6-6-4-6--6-6-6-6-6-4-6-6--6-6-6-6-6-6-4-6-------|
A|-4-4-4-4-4-4-6-4--4-4-4-4-4-6-4-4--4-4-4-4-4-4-6-4--4-4-4-4-4-6-4-4-------|
E|-----------2-4--------------4-2--------------2-4--------------4-2---------|
  Carpe Diem, A battle Cry, Aren't we all too young to die,
  Ask a reason and No reply, Aren't we all too young to die

e|--------------------------------------------------------------------------|
B|--------------------------------------------------------------------------|
G|-----------------6-6-6-6-8-6-5-6------------------6-6-6-6-8-6-8-9---------|
D|-4-4-4-4-4-4-4-4-6-6-6-6-8-6-5-6--4-4-4-4-4-4-4-4-6-6-6-6-8-6-8-9---------|
A|-4-4-4-4-4-4-4-4-4-4-4-4-6-4-3-4--4-4-4-4-4-4-4-4-4-4-4-4-6-4-6-7---------|
E|-2-2-2-2-2-2-2-2------------------2-2-2-2-2-2-2-2-------------------------|
  Making a Living                  Making a Killing

e|--------------------------------------------------------------------------|
B|--------------------------------------------------------------------------|
G|-----------------6-6-6-6-6-6-6-6------------------------------------------|
D|-4-4-4-4-4-4-4-4-6-6-6-6-6-6-6-6--6-6--6-6--6-6--6-6----------------------|
A|-4-4-4-4-4-4-4-4-4-4-4-4-4-4-4-4--6-6--6-6--6-6--6-6----------------------|
E|-2-2-2-2-2-2-2-2------------------4-4--4-4--4-4--4-4----------------------|
Whats worth forgiving alive

VERSE 2
e|--------------------------------------------------------------------------|
B|--------------------------------------------------------------------------|
G|---------------------------------------------6----------------------------|
D|-6-6-6-6-6-----6--6-6-6-6-6-----6--6-6-6-6-6-6--6-6-6-6-6-6-6-6-----------|
A|-4-4-4-4-4-4h6-4--4-4-4-4-4-4h6-4--4-4-4-4-4-4--6-6-6-6-6-6-6-6-----------|
E|------------------------------------------------4-4-4-4-4-4-4-4-----------|
And the other night, Barely Scraping By, Dominated by Passer By's

e|--------------------------------------------------------------------------|
B|--------------------------------------------------------------------------|
G|---------------------------------------------6----------------------------|
D|-6-6-6-6-6-----6--6-6-6-6-6-----6--6-6-6-6-6-6--6-6-6-6-6-6-6-6-----------|
A|-4-4-4-4-4-4h6-4--4-4-4-4-4-4h6-4--4-4-4-4-4-4--6-6-6-6-6-6-6-6-----------|
E|------------------------------------------------4-4-4-4-4-4-4-4-----------|
Feeling out of luck, When the traffic's stuck, And you're feeling, So left behind

e|--------------------------------------------------------------------------|
B|--------------------------------------------------------------------------|
G|---------------------------------------------6----------------------------|
D|-6-6-6-6-6-----6--6-6-6-6-6-----6--6-6-6-6-6-6--6-6-6-6-6-6-6-6-----------|
A|-4-4-4-4-4-4h6-4--4-4-4-4-4-4h6-4--4-4-4-4-4-4--6-6-6-6-6-6-6-6-----------|
E|------------------------------------------------4-4-4-4-4-4-4-4-----------|
Getting off a binge, Get a second wind, Another promise, Just make a change

e|--------------------------------------------------------------------------|
B|--------------------------------------------------------------------------|
G|---------------------------------------------6----------------------------|
D|-6-6-6-6-6-----6--6-6-6-6-6-----6--6-6-6-6-6-6--6-6-6-6-6-----------------|
A|-4-4-4-4-4-4h6-4--4-4-4-4-4-4h6-4--4-4-4-4-4-4--6-6-6-6-6-----------------|
E|------------------------------------------------4-4-4-4-4-----------------|
Got a Broken wing, Hear the angels sing, with a signal that's out of Range

e|---------------------------------------|
B|---------------------------------------|
G|-6------------6------------------------|
D|-6-6-6-6-6-6--6-6-6-6-6-6-6-6-6--------|
A|-4-6-6-6-6-6--4-6-6-6-6-6-6-6-6--------|
E|---4-4-4-4-4----4-4-4-4-4-4-4-4--------|
make a change, make a change

CHORUS:
e|--------------------------------------------------------------------------|
B|--------------------------------------------------------------------------|
G|-6-6-6-6-6-----6--6-6-6-6-6-----6--6-6-6-6-6-----6--6-6-6-6-6-----6-------|
D|-6-6-6-6-6-4-6-6--6-6-6-6-6-6-4-6--6-6-6-6-6-4-6-6--6-6-6-6-6-6-4-6-------|
A|-4-4-4-4-4-4-6-4--4-4-4-4-4-6-4-4--4-4-4-4-4-4-6-4--4-4-4-4-4-6-4-4-------|
E|-----------2-4--------------4-2--------------2-4--------------4-2---------|
  Carpe Diem, A battle Cry, Aren't we all too young to die,
  Ask a reason and No reply, Aren't we all too young to die

e|--------------------------------------------------------------------------|
B|--------------------------------------------------------------------------|
G|-----------------6-6-6-6-8-6-5-6------------------6-6-6-6-8-6-8-9---------|
D|-4-4-4-4-4-4-4-4-6-6-6-6-8-6-5-6--4-4-4-4-4-4-4-4-6-6-6-6-8-6-8-9---------|
A|-4-4-4-4-4-4-4-4-4-4-4-4-6-4-3-4--4-4-4-4-4-4-4-4-4-4-4-4-6-4-6-7---------|
E|-2-2-2-2-2-2-2-2------------------2-2-2-2-2-2-2-2-------------------------|
  Making a Living                  Making a Killing

e|--------------------------------------------------------------------------|
B|--------------------------------------------------------------------------|
G|-----------------6-6-6-6-6-6-6-6------------------------------------------|
D|-4-4-4-4-4-4-4-4-6-6-6-6-6-6-6-6--6-6--6-6--6-6--6-6----------------------|
A|-4-4-4-4-4-4-4-4-4-4-4-4-4-4-4-4--6-6--6-6--6-6--6-6----------------------|
E|-2-2-2-2-2-2-2-2------------------4-4--4-4--4-4--4-4----------------------|
Whats worth forgiving alive

SOLO?

BRIDGE?

e|---------------------------|
B|---------------------------|
G|-6---6---6-----------------|
D|-6-6-6-6-6-6-6-6-6-6-------|
A|-4-6-4-6-4-6-6-6-6-6-------|
E|---4---4---4-4-4-4-4-------|

INTRO:
e|--------------------------------------------------------------------------|
B|--------------------------------------------------------------------------|
G|-6-6-6-6-6-----6--6-6-6-6-6-----6--6-6-6-6-6-----6--6-6-6-6-6-----6-------|
D|-6-6-6-6-6-4-6-6--6-6-6-6-6-6-4-6--6-6-6-6-6-4-6-6--6-6-6-6-6-6-4-6-------|
A|-4-4-4-4-4-4-6-4--4-4-4-4-4-6-4-4--4-4-4-4-4-4-6-4--4-4-4-4-4-6-4-4-------|
E|-----------2-4--------------4-2--------------2-4--------------4-2---------|

CHORUS:
e|--------------------------------------------------------------------------|
B|--------------------------------------------------------------------------|
G|-6-6-6-6-6-----6--6-6-6-6-6-----6--6-6-6-6-6-----6--6-6-6-6-6-----6--6----|
D|-6-6-6-6-6-4-6-6--6-6-6-6-6-6-4-6--6-6-6-6-6-4-6-6--6-6-6-6-6-6-4-6--6----|
A|-4-4-4-4-4-4-6-4--4-4-4-4-4-6-4-4--4-4-4-4-4-4-6-4--4-4-4-4-4-6-4-4--4----|
E|-----------2-4--------------4-2--------------2-4--------------4-2---------|
  Carpe Diem, A battle Cry, Aren't we all too young to die,
  Ask a reason and No reply, Aren't we all too young to die

e|--------------------------------------------------------------------------|
B|--------------------------------------------------------------------------|
G|-6-6-6-6-6-----6--6-6-6-6-6-----6--6-6-6-6-6-----6--6-6-6-6-6-----6-------|
D|-6-6-6-6-6-4-6-6--6-6-6-6-6-6-4-6--6-6-6-6-6-4-6-6--6-6-6-6-6-6-4-6-------|
A|-4-4-4-4-4-4-6-4--4-4-4-4-4-6-4-4--4-4-4-4-4-4-6-4--4-4-4-4-4-6-4-4-------|
E|-----------2-4--------------4-2--------------2-4--------------4-2---------|
  Carpe Diem, A battle Cry, Aren't we all too young to die,
  Ask a reason and No reply, Aren't we all too young to die
Tap to rate this tab
# A B C D E F G H I J K L M N O P Q R S T U V W X Y Z