Song name
# A B C D E F G H I J K L M N O P Q R S T U V W X Y Z

Green Day - Christie Road tab

I'm sure it's more accurate than the other versions.
Tabbed by ear (and whatched a live video to check), it goes well with the track.
Tuning is down half a step.

Intro/Verse
    G5         E5         C5           D5
|---------------------------------------------0-------0--------|
|----------------------------------3--3---3-----3---3---3---3--|
|-----------------------555555555--2----2---2-----2-------2----|
|-555555555--222222222--555555555--0---------------------------|X2
|-555555555--222222222--333333333------------------------------|
|-333333333--000000000-----------------------------------------|
PM...............................

Chorus
   C5         G5           D5
|---------------------------------0-------0--------|
|----------------------3--3---3-----3---3---3---3--|
|-555555555------------2----2---2-----2-------2----|
|-555555555-555555555--0---------------------------|X3
|-333333333-555555555------------------------------|
|-----------333333333------------------------------|

 C5  G5   D5
|------------|
|---------3~-|
|-5~------2~-|
|-5~--5~--0~-|
|-3~--5~-----|
|-----3~-----|

Verse (same as first)

Chorus (same as first)

Bridge
  G5      F5     C5      F5
|------------------------------|
|------------------------------|
|----------------5-5-----------|
|-5-5-xxx-3-3-3--5-5-xxx-3-3-3-|X6
|-5-5-xxx-3-3-3--3-3-xxx-3-3-3-|
|-3-3-xxx-1-1-1------xxx-1-1-1-|

Interlude
  G5    B5     F5
|------------------------|
|------------------------|
|-------44444------------|
|-55555-44444-33333333---|X8
|-55555-22222-33333333---|
|-33333-------11111111---|

  C5  F5   G5
|-----------------|
|-----------------|
|-5-5-------------|
|-5-5--3-3--5555--|X3
|-3-3--3-3--5555--|
|------1-1--3333--|

    F5          C5
|------------------------|
|------------------------|
|-------------5555555555-|
|-3333333333--5555555555-|
|-3333333333--3333333333-|
|-1111111111-------------|
PM..........

Bridge (same as first)
end on last chord.
Tap to rate this tab
 
# A B C D E F G H I J K L M N O P Q R S T U V W X Y Z