Song name
# A B C D E F G H I J K L M N O P Q R S T U V W X Y Z

Green Day - Oh Love tab

Band : Green Day
Song : Oh Love
Album : ĦUno!
Year : 2012

Really good song from Green Day, this tab is not perfect but it tones right !


Verse
e|---------------------------------|----------|
B|---------------------------------|----------|
G|----------5-----------5--5--5--5-|-------5--|
D|--5-5-----5--5-5------5--5--5--5-|-5-5---5--|
A|--5-5-----3--5-5------3--3--3--3-|-5-5---3--|
E|--3-3--------3-3-----------------|-3-3------|
                                   |
                                   |Stop here for the last time of the verse and go to Pre-Chorus


Pre-Chorus
e|-----------------------------------------------|
B|-----------------------------------------------|
G|--5--5--5--5--7-7-7-7-7-7-7-7-7-7-7-7-7-7-7-7--|
D|--5--5--5--5--7-7-7-7-7-7-7-7-7-7-7-7-7-7-7-7--|
A|--3--3--3--3--5-5-5-5-5-5-5-5-5-5-5-5-5-5-5-5--|
E|-----------------------------------------------|

Chorus
e|-------------------------------------------------------------------|
B|-------------------------------------------------------------------|
G|----------7-7-7-7-9-9-9-9-5-5-5-5---------7-7-7-7---------7-7-7-7--|
D|--5-5-5-5-7-7-7-7-9-9-9-9-5-5-5-5-5-5-5-5-7-7-7-7-5-5-5-5-7-7-7-7--|
A|--5-5-5-5-5-5-5-5-7-7-7-7-3-3-3-3-5-5-5-5-5-5-5-5-5-5-5-5-5-5-5-5--|
E|--3-3-3-3-------------------------3-3-3-3---------3-3-3-3----------|

e|--------------------------------------------------|
B|--------------------------------------------------|
G|----------7-7-7-7-9-9-9-9-5-5-5-5---------7-7-7-7-|
D|--5-5-5-5-7-7-7-7-9-9-9-9-5-5-5-5-5-5-5-5-7-7-7-7-|
A|--5-5-5-5-5-5-5-5-7-7-7-7-3-3-3-3-5-5-5-5-5-5-5-5-|
E|--3-3-3-3-------------------------3-3-3-3---------|


Break
e|--------------------------------------------------------------------|
B|--------------------------------------------------------------------|
G|-------------0---7-7----7-7-------------0---7-7---7-7-------------0-|
D|--5-5-5-5-5-52---7-7----7-7---5-5---5-5-2---7-7---7-7---5-5---5-5-2-|
A|--5-5-5-5-5-53---5-5----5-5---5-5---5-5-3---5-5---5-5---5-5---5-5-3-|
E|--3-3-3-3-3-3-----------------3-3---3-3-----------------3-3---3-3---|

e|-----------------------------------------|
B|-----------------------------------------|
G|--7-7---7-7---------10-10--7-7-7-7-9-9---|
D|--7-7---7-7---5-5---10-10--7-7-7-7-9-9---|
A|--5-5---5-5---5-5---8--8---5-5-5-5-7-7---|
E|--------------3-3------------------------|


End
e|-----------------------------------------------------------------------------|
B|-----------------------------------------------------------------------------|
G|-----------7-7-7-7---------7--7-----------7-7-7-7--------7-7---------5-------|
D|--5-5-5-5--7-7-7-7---5--5--7--7--5-5-5-5--7-7-7-7--5--5--7-7--5-5-5-55---5-5-|
A|--5-5-5-5--5-5-5-5---5--5--5--5--5-5-5-5--5-5-5-5--5--5--5-5--5-5-5-53---5-5-|
E|--3-3-3-3------------3--3--------3-3-3-3-----------3--3-------3-3-3-3----3-3-|

Play this :

Verse x5
pre Chorus x1
Chorus x1
Verse x5
Chorus x1
Break x1
Chorus x1
Pre-Chorus x1
Verse x3
Pre-Chorus
Chorus x2
End


Hope You'll enjoy :)
Tap to rate this tab
# A B C D E F G H I J K L M N O P Q R S T U V W X Y Z