Song name
# A B C D E F G H I J K L M N O P Q R S T U V W X Y Z

Green Day - Oh Love tab

Green Day - Oh Love

I'm still working on this I will finish it when I have time

Verse
e|x-x-------x-x-x---------x-x-x--------------------x-x-x-----|
B|x-x-------x-x-x---------x-x-x--------------------x-x-x-----|
G|x-x-------x-x-x--6------x-x-x--6-6-6-6-6-6-------x-x-x-----|
D|x-x--6-6--x-x-x--6-6-6--x-x-x--6-6-6-6-6-6--6-6--x-x-x-----|
A|x-x--6-6--x-x-x--4-6-6--x-x-x--4-4-4-4-4-4--6-6--x-x-x-----|
E|x-x--4-4--x-x-x----4-4--x-x-x---------------4-4--x-x-x-----|

e|---------x-x-x---------x-x-x--------------------x-x-x----|
B|---------x-x-x---------x-x-x--------------------x-x-x----|
G|--6------x-x-x--6------x-x-x--6-6-6-6-6-6-------x-x-x----|
D|--6-6-6--x-x-x--6-6-6--x-x-x--6-6-6-6-6-6--6-6--x-x-x----|
A|--4-6-6--x-x-x--4-6-6--x-x-x--4-4-4-4-4-4--6-6--x-x-x----|
E|----4-4--x-x-x----4-4--x-x-x---------------4-4--x-x-x----|
  Oh love         Oh love       wont you rain on me tonight

e|---------x-x-x---------x-x-x--------------------x-x-x----|
B|---------x-x-x---------x-x-x--------------------x-x-x----|
G|--6------x-x-x--6------x-x-x--6-6-6-6-6-6-------x-x-x----|
D|--6-6-6--x-x-x--6-6-6--x-x-x--6-6-6-6-6-6--6-6--x-x-x----|
A|--4-6-6--x-x-x--4-6-6--x-x-x--4-4-4-4-4-4--6-6--x-x-x----|
E|----4-4--x-x-x----4-4--x-x-x---------------4-4--x-x-x----|
Oh life          Oh life       please don’t pass me by

e|---------x-x-x---------x-x-x--------------------x-x-x----|
B|---------x-x-x---------x-x-x--------------------x-x-x----|
G|--6------x-x-x--6------x-x-x--6-6-6-6-6-6-------x-x-x----|
D|--6-6-6--x-x-x--6-6-6--x-x-x--6-6-6-6-6-6--6-6--x-x-x----|
A|--4-6-6--x-x-x--4-6-6--x-x-x--4-4-4-4-4-4--6-6--x-x-x----|
E|----4-4--x-x-x----4-4--x-x-x---------------4-4--x-x-x----|
Don’t stop        Don’t stop    when the red lights flash

e|---------x-x-x---------x-x-x----------------------------------|
B|---------x-x-x---------x-x-x----------------------------------|
G|--6------x-x-x--6------x-x-x--6-6-6-6--8888-8888-8888-8888----|
D|--6-6-6--x-x-x--6-6-6--x-x-x--6-6-6-6--8888-8888-8888-8888----|
A|--4-6-6--x-x-x--4-6-6--x-x-x--4-3-4-3--6666-6666-6666-6666----|
E|----4-4--x-x-x----4-4--x-x-x----------------------------------|
   Oh ride       free Ride       wont you take me close to you

Chorus
e|----------------------------------------|
B|----------------------------------------|
G|----------6-6-6-6—-----------8-8-8-8----|
D|-6-6-6-6--6-6-6-6—-6-6-6-6---8-8-8-8----|
A|-6-6-6-6--4-4-4-4—-6-6-6-6---6-6-6-6----|
E|-4-4-4-4-----------4-4-4-4--------------|
Far away   Far away  Waste away tonight

e|---------------------------------------------|
B|---------------------------------------------|
G|----------8-8-8-8—----------8-8-8-8-8-8-8-8--|
D|-6-6-6-6--8-8-8-8—-6-6-6-6--8-8-8-8-8-8-8-8--|
A|-6-6-6-6--6-6-6-6—-6-6-6-6--6-6-6-6-6-6-6-6--|
E|-4-4-4-4-----------4-4-4-4-------------------|
 I’m wearing my heart on a noose

e|----------------------------------------|
B|----------------------------------------|
G|----------6-6-6-6—-----------8-8-8-8----|
D|-6-6-6-6--6-6-6-6—-6-6-6-6---8-8-8-8----|
A|-6-6-6-6--4-4-4-4—-6-6-6-6---6-6-6-6----|
E|-4-4-4-4-----------4-4-4-4--------------|
Far away   Far away  Waste away tonight

e|------------------------x-x-x-----------|
B|------------------------x-x-x-----------|
G|----------8-8-8-8—------x-x-x-----------|
D|-6-6-6-6--8-8-8-8—-6-6--x-x-x-----------|
A|-6-6-6-6--6-6-6-6—-6-6--x-x-x-----------|
E|-4-4-4-4-----------4-4--x-x-x-----------|
 Tonight my heart is on the  loose

e|---------x-x-x---------------------x-x-x------|
B|---------x-x-x---------------------x-x-x------|
G|--6------x-x-x--6-6--6-6-6-6-------x-x-x------|
D|--6-6-6--x-x-x--6-6--6-6-6-6--6-6--x-x-x------|
A|--4-6-6--x-x-x--4-4--4-4-4-4--6-6--x-x-x------|
E|----4-4--x-x-x----------------4-4--x-x-x----
Verse 2
e|---------x-x-x-x---------x-x-x-x--------------------x-x-x-x----|
B|---------x-x-x-x---------x-x-x-x--------------------x-x-x-x----|
G|--6------x-x-x-x--6------x-x-x-x--6-6-6-6-6-6-------x-x-x-x----|
D|--6-6-6--x-x-x-x--6-6-6--x-x-x-x--6-6-6-6-6-6--6-6--x-x-x-x----|
A|--4-6-6--x-x-x-x--4-6-6--x-x-x-x--4-4-4-4-4-4--6-6--x-x-x-x----|
E|----4-4--x-x-x-x----4-4--x-x-x-x---------------4-4--x-x-x-x----|
  Oh lights        and action       I just can’t be satisfied

e|---------x-x-x-x---------x-x-x-x--------------------x-x-x-x----|
B|---------x-x-x-x---------x-x-x-x--------------------x-x-x-x----|
G|--6------x-x-x-x--6------x-x-x-x--6-6-6-6-6-6-------x-x-x-x----|
D|--6-6-6--x-x-x-x--6-6-6--x-x-x-x--6-6-6-6-6-6--6-6--x-x-x-x----|
A|--4-6-6--x-x-x-x--4-6-6--x-x-x-x--4-4-4-4-4-4--6-6--x-x-x-x----|
E|----4-4--x-x-x-x----4-4--x-x-x-x---------------4-4--x-x-x-x----|
 Oh losers         and choosers     won’t you please hold on my life

e|---------x-x-x-x---------x-x-x-x--------------------x-x-x-x----|
B|---------x-x-x-x---------x-x-x-x--------------------x-x-x-x----|
G|--6------x-x-x-x--6------x-x-x-x--6-6-6-6-6-6-------x-x-x-x----|
D|--6-6-6--x-x-x-x--6-6-6--x-x-x-x--6-6-6-6-6-6--6-6--x-x-x-x----|
A|--4-6-6--x-x-x-x--4-6-6--x-x-x-x--4-4-4-4-4-4--6-6--x-x-x-x----|
E|----4-4--x-x-x-x----4-4--x-x-x-x---------------4-4--x-x-x-x----|
 Oh hours          and hours        like the dog years of the day

e|---------x-x-x-x---------x-x-x-x----------------------------------|
B|---------x-x-x-x---------x-x-x-x----------------------------------|
G|--6------x-x-x-x--6------x-x-x-x--6-6-6-6--8888-8888-8888-8888----|
D|--6-6-6--x-x-x-x--6-6-6--x-x-x-x--6-6-6-6--8888-8888-8888-8888----|
A|--4-6-6--x-x-x-x--4-6-6--x-x-x-x--4-3-4-3--6666-6666-6666-6666----|
E|----4-4--x-x-x-x----4-4--x-x-x-x----------------------------------|
 Old story        same old story     wont you see the light of day

Chorus
e|----------------------------------------|
B|----------------------------------------|
G|----------6-6-6-6—-----------8-8-8-8----|
D|-6-6-6-6--6-6-6-6—-6-6-6-6---8-8-8-8----|
A|-6-6-6-6--4-4-4-4—-6-6-6-6---6-6-6-6----|
E|-4-4-4-4-----------4-4-4-4--------------|
Far away   Far away  Waste away tonight

e|---------------------------------------------|
B|---------------------------------------------|
G|----------8-8-8-8—----------8-8-8-8-8-8-8-8--|
D|-6-6-6-6--8-8-8-8—-6-6-6-6--8-8-8-8-8-8-8-8--|
A|-6-6-6-6--6-6-6-6—-6-6-6-6--6-6-6-6-6-6-6-6--|
E|-4-4-4-4-----------4-4-4-4-------------------|
 I’m wearing my heart on a noose

e|----------------------------------------|
B|----------------------------------------|
G|----------6-6-6-6—-----------8-8-8-8----|
D|-6-6-6-6--6-6-6-6—-6-6-6-6---8-8-8-8----|
A|-6-6-6-6--4-4-4-4—-6-6-6-6---6-6-6-6----|
E|-4-4-4-4-----------4-4-4-4--------------|
Far away   Far away  Waste away tonight

e|-------------------------------------------|
B|-------------------------------------------|
G|----------8-8-8-8—-------------------------|
D|-6-6-6-6--8-8-8-8—-6-6-6-6-6-6-6-6-/4------|
A|-6-6-6-6--6-6-6-6—-6-6-6-6-6-6-6-6-/4------|
E|-4-4-4-4-----------4-4-4-4-4-4-4-4-/2------|
 Tonight my heart is on the  loose

Tap to rate this tab
# A B C D E F G H I J K L M N O P Q R S T U V W X Y Z