Song name
# A B C D E F G H I J K L M N O P Q R S T U V W X Y Z

Green Day - Oh Love tab

Artist: Green Day
Album: ĦUNO!
Song: Oh Love
Track: 12
Year: 2012
Tuning: Standard (EADGBe)

Intro |Verse 1 (0:00 - 0:46) (Clean)
e|----|-------------------------------------------- repeat--| x5
B|----|-----------------------------------------------------|
G|----|---------6-----------6-6-66666-66----------6---------|
D|----|6-6------6-6-6-------6-6-66666-66-6-6------6---------|
A|--xx|6-6-x-x-x4-6-6-x-x-x-4-4-44444-44-6-6-x-x------------|x4
E|--xx|4-4-x-x-x--4-4-x-x-x--------------4-4-x-x-x----------|

Pre-Chorus 1 (0:46 - 1:00) (Distortion starts at 0:52)
e|----------------------------------------------|
B|----------------------------------------------|
G|---------6-----------6-5-6---8888888888888888-|
D|6-6------6-6-6-------6-5-6-6-8888888888888888-|
A|6-6-x-x-x4-6-6-------4-3-4-6-6666666666666666-|
E|4-4-x-x-x--4-4-------------4------------------|

Chorus 1 (1:00 - 1:19) (Distortion)
e|------------------------------------------------------------|
B|------------------------------------------------------------|
G|-------8-8-88--------6-6-66--------8-8-88----------88888888-|
D|6-6-66-8-8-88-6-6-66-6-6-66-6-6-66-8-8-88-6-6-66-6-88888888-|
A|6-6-66-6-6-66-6-6-66-4-4-44-6-6-66-6-6-66-6-6-66-6-66666666-|
E|4-4-44--------4-4-44--------4-4-44--------4-4-44-4----------|

e|------------------------------------------|
B|------------------------------------------|
G|-------8-8-88--------6-6-66--------8-8-88-|
D|6-6-66-8-8-88-6-6-66-6-6-66-6-6-66-8-8-88-|
A|6-6-66-6-6-66-6-6-66-4-4-44-6-6-66-6-6-66-|
E|4-4-44--------4-4-44--------4-4-44--------|

Verse 2 (1:19 - 2:01)(Distortion)
e|------------------------------------------ repeat--| x5
B|---------------------------------------------------|
G|---------6-----------6-6-66666-66----------6-------|
D|6-6------6-6-6-------6-6-66666-66-6-6------6-------|
A|6-6-x-x-x4-6-6-x-x-x-4-4-44444-44-6-6-x-x----------|x4
E|4-4-x-x-x--4-4-x-x-x--------------4-4-x-x-x--------|
(Note: dont be afraid to get funky with the x's with this verse and pre-chorus, throw in 
some slides)

Pre-Chorus 2 (2:02 - 2:18) (Distortion)
e|----------------------------------------------|
B|----------------------------------------------|
G|---------6-----------6-5-6---8888888888888888-|
D|6-6------6-6-6-------6-5-6-6-8888888888888888-|
A|6-6-x-x-x4-6-6-------4-3-4-6-6666666666666666-|
E|4-4-x-x-x--4-4-------------4------------------|

Chorus 2 (2:19 - 2:41) (Distortion)
e|------------------------------------------------------------|
B|------------------------------------------------------------|
G|-------8-8-88--------6-6-66--------8-8-88----------88888888-|
D|6-6-66-8-8-88-6-6-66-6-6-66-6-6-66-8-8-88-6-6-66-6-88888888-|
A|6-6-66-6-6-66-6-6-66-4-4-44-6-6-66-6-6-66-6-6-66-6-66666666-|
E|4-4-44--------4-4-44--------4-4-44--------4-4-44-4----------|

e|-----------------------------------------------------|
B|-----------------------------------------------------|
G|-------8-8-88--------6-6-66--------8-8-88------------|
D|6-6-66-8-8-88-6-6-66-6-6-66-6-6-66-8-8-88-6-6-66-6-4-|
A|6-6-66-6-6-66-6-6-66-4-4-44-6-6-66-6-6-66-6-6-66-6-4-|
E|4-4-44--------4-4-44--------4-4-44--------4-4-44-4-2-|

Middle 8 (2:42 -3:03) (Distortion)
e|------------------------------------------------------|
B|------------------------------------------------------|
G|6-6--6-6-------------6-666-666-666-66-----------------|
D|6-6--6-6-6-6--6-6-4--6-666-666-666-66-6-666-666-666-4-|
A|4-4--4-4-6-6--6-6-4--4-444-444-444-44-6-666-666-666-4-|
E|---------4-4--4-4-2-------------------4-444-444-444-2-|

e|-----------------------------------------------------------|
B|-----------------------------------------------------------|
G|6-6--6-6-------8---------------6--5--6-----8-8-8-8-8-8-8-8-|
D|6-6--6-6--6-6--8-101010101010--6--5--6--6--8-8-8-8-8-8-8-8-|
A|4-4--4-4--6-6--6-8-8-8-8-8-8---4--3--4--6--6-6-6-6-6-6-6-6-|
E|----------4-4---------------------------4------------------|

Solo (3:03 3:29) (Distortion)
e|-----------------------------------------------4------------------------|
B|----------------------------------------------4-4-6^6-4-----------------|
G|-------1~~1-0-1-3~~3-1-3-5~~5-3-5-6~~6-5-6--6^----------6-6^6-4-4-6>4-4-|
D|---------------------------------------------------------------6-----6--|
A|------------------------------------------------------------------------|
E|\\12\\------------------------------------------------------------------|

e|--4------------------------------------------------------------------------|
B|-4-7^~^~^~^------9~~9-8-9-11~~11-9-11-13~~13-11-13-14~~14-11-13-14~13~14~--|
G|6^----------------------------------------------------------------------13-|
D|---------------------------------------------------------------------------|
A|---------------------------------------------------------------------------|
E|-----------\\12\\----------------------------------------------------------|

e|---------15~~15-16-18~~18-20-21-15-22^~~-|
B|16~~16-18--------------------------------|
G|-----------------------------------------|
D|-----------------------------------------|
A|-----------------------------------------|
E|-----------------------------------------|

Rythm during Solo (3:03 - 3:29) (Distortion)
e|------------------------------------------------------------|
B|------------------------------------------------------------|
G|-------8-8-88--------6-6-66--------8-8-88----------88888888-|
D|6-6-66-8-8-88-6-6-66-6-6-66-6-6-66-8-8-88-6-6-66-6-88888888-|
A|6-6-66-6-6-66-6-6-66-4-4-44-6-6-66-6-6-66-6-6-66-6-66666666-|
E|4-4-44--------4-4-44--------4-4-44--------4-4-44-4----------|

e|----------------------------------------------------------|
B|----------------------------------------------------------|
G|-------8-8-88--------6-6-66--6--5--6-----8888888888888888-|
D|6-6-66-8-8-88-6-6-66-6-6-66--6--5--6--6--8888888888888888-|
A|6-6-66-6-6-66-6-6-66-4-4-44--4--3--4--6--6666666666666666-|
E|4-4-44--------4-4-44------------------4-------------------|

Verse 3 (3:29 - 3:49) (Clean)
e|-------------------------------------------- repeat--| x3
B|-----------------------------------------------------|
G|---------6-----------6-6-66666-66----------6---------|
D|6-6------6-6-6-------6-6-66666-66-6-6------6---------|
A|6-6-x-x-x4-6-6-x-x-x-4-4-44444-44-6-6-x-x------------|x4
E|4-4-x-x-x--4-4-x-x-x--------------4-4-x-x-x----------|

Pre-Chorus 2 (3:49 - 4:05) (Distortion starts at 3:57)
e|----------------------------------------------|
B|----------------------------------------------|
G|---------6-----------6-5-6---8888888888888888-|
D|6-6------6-6-6-------6-5-6-6-8888888888888888-|
A|6-6-x-x-x4-6-6-------4-3-4-6-6666666666666666-|
E|4-4-x-x-x--4-4-------------4------------------|

Chorus 3 (4:05 - 4:50) (Distortion)
e|------------------------------------------------------------|
B|------------------------------------------------------------|
G|-------8-8-88--------6-6-66--------8-8-88----------88888888-|
D|6-6-66-8-8-88-6-6-66-6-6-66-6-6-66-8-8-88-6-6-66-6-88888888-|
A|6-6-66-6-6-66-6-6-66-4-4-44-6-6-66-6-6-66-6-6-66-6-66666666-|
E|4-4-44--------4-4-44--------4-4-44--------4-4-44-4----------|

e|------------------------------------------------------------|
B|------------------------------------------------------------|
G|-------8-8-88--------6-6-66--------8-8-88----------88888888-|
D|6-6-66-8-8-88-6-6-66-6-6-66-6-6-66-8-8-88-6-6-66-6-88888888-|
A|6-6-66-6-6-66-6-6-66-4-4-44-6-6-66-6-6-66-6-6-66-6-66666666-|
E|4-4-44--------4-4-44--------4-4-44--------4-4-44-4----------|

e|------------------------------------------------------------|
B|------------------------------------------------------------|
G|-------8-8-88--------6-6-66--------8-8-88----------88888888-|
D|6-6-66-8-8-88-6-6-66-6-6-66-6-6-66-8-8-88-6-6-66-6-88888888-|
A|6-6-66-6-6-66-6-6-66-4-4-44-6-6-66-6-6-66-6-6-66-6-66666666-|
E|4-4-44--------4-4-44--------4-4-44--------4-4-44-4----------|

e|------------------------------------------------------------|
B|------------------------------------------------------------|
G|-------8-8-88--------6-6-66--------8-8-88----------88888888-|
D|6-6-66-8-8-88-6-6-66-6-6-66-6-6-66-8-8-88-6-6-66-6-88888888-|
A|6-6-66-6-6-66-6-6-66-4-4-44-6-6-66-6-6-66-6-6-66-6-66666666-|
E|4-4-44--------4-4-44--------4-4-44--------4-4-44-4----------|

Outro (4:50 -5:03) (Distortion)
e|-----------------------------------------------------|
B|-----------------------------------------------------|
G|-------8-8-88--------8888888--------8-8-88-------6---|
D|6-6-66-8-8-88-6-6-66-8888888-6-6-66-8-8-88--6-6--6-6-|
A|6-6-66-6-6-66-6-6-66-6666666-6-6-66-6-6-66--6-6--4-6-|
E|4-4-44--------4-4-44---------4-4-44---------4-4----4-|

Key: x = hit strings with plectrum
     ~ = vibrate string.
     \\= slide down fretboard.
     ^ = bend string.
     ^~ = bend string and vibrate.
Tap to rate this tab
 
# A B C D E F G H I J K L M N O P Q R S T U V W X Y Z