Song name
# A B C D E F G H I J K L M N O P Q R S T U V W X Y Z

Green Day - Oh Love tab

Song:Oh Love
Band:Green Day
Album:!Uno!
Tuning:Standart
Tabbed by Dookie18241

Iīm not really sure if it 100 % but it sounds good :)

Intro:
E--------------------------------------|
B--------------------------------------|
G--6---------6---------6-6-6-6-6-6-----|
D--6-6-6-----6-66------6-6-6-6-6-6-6-6-|
A--4-6-6-----4-66------4-4-4-4-4-4-6-6-|
E----4-4-------44------------------4-4-|

Verse:
E--------------------------------------|
B--------------------------------------|
G--6---------6---------6-6-6-6-6-6-----|
D--6-6-6-----6-66------6-6-6-6-6-6-6-6-|
A--4-6-6-----4-66------4-4-4-4-4-4-6-6-|
E----4-4-------44------------------4-4-|play 3x

play in the last time
of the verse
E-------------------|------------------------------------------|
B-------------------|------------------------------------------|
G--6---------6------|--6---6---8-8-8-8-8-8-8-8-8-8-8-8-8-8-8-8-|
D--6-6-6-----6-66---|--6-6-6-6-8-8-8-8-8-8-8-8-8-8-8-8-8-8-8-8-|
A--4-6-6-----4-66---|--4-3-4-6-6-6-6-6-6-6-6-6-6-6-6-6-6-6-6-6-|
E----4-4-------44---|--------4---------------------------------|

Chorus:
E|-------------------------------------------------------------------|
B|-------------------------------------------------------------------|
G|----------8-8-8-8---------6-6-6-6---------8-8-8-8---------8-8-8-8--|
D|--6-6-6-6-8-8-8-8-6-6-6-6-6-6-6-6-6-6-6-6-8-8-8-8-6-6-6-6-8-8-8-8--|
A|--6-6-6-6-6-6-6-6-6-6-6-6-4-4-4-4-6-6-6-6-6-6-6-6-6-6-6-6-6-6-6-6--|
E|--4-4-4-4---------4-4-4-4---------4-4-4-4---------4-4-4-4----------|


E|--------------------------------------------------|
B|--------------------------------------------------|
G|----------8-8-8-8---------6-6-6-6---------8-8-8-8-|
D|--6-6-6-6-8-8-8-8-6-6-6-6-6-6-6-6-6-6-6-6-8-8-8-8-|
A|--6-6-6-6-6-6-6-6-6-6-6-6-4-4-4-4-6-6-6-6-6-6-6-6-|
E|--4-4-4-4---------4-4-4-4---------4-4-4-4---------|

Intro:1x

Verse:4x

Chorus:1x

Bridge:

E---------------------------------------------------------------------------|
B---------------------------------------------------------------------------|
G-----------------6-6---6-6-------------------6-6-6-6-6-6-6-----------------|
D-6-6-6-6-6-6-4---6-6---6-6---6-6---6-6-6-4---6-6-6-6-6-6-6-6-6-6-6-6-6-6-4-|
A-6-6-6-6-6-6-4---4-4---4-4---6-6---6-6-6-4---4-4-4-4-4-4-4-6-6-6-6-6-6-6-4-|
E-4-4-4-4-4-4-2---------------4-4---4-4-4-2-----------------4-4-4-4-4-4-4-2-|


E------------------------------------------------------------------------|
B------------------------------------------------------------------------|
G-6-6---6-6---------8-10-10-10-10-10-6---6---8-8-8-8-8-8-8-8-8-8-8-8-8-8-|
D-6-6---6-6---6-6-6-8-10-10-10-10-10-6-6-6-6-8-8-8-8-8-8-8-8-8-8-8-8-8-8-|
A-4-4---4-4---6-6-6-6-8-8-8-8-8-8-8--4-3-4-6-6-6-6-6-6-6-6-6-6-6-6-6-6-6-|
E-------------4-4-4------------------------4-----------------------------|


Solo:
E---------------------------------------|
B---------------------------------------|
G-----------------5----5-6----4-6-6b(8)-|
D--/6--5-6-8--6-8----8------------------|
A---------------------------------------|
E---------------------------------------|

E---4-------------------------------------|
B-4---4-7b(9)-7-4-------------------------|
G-----------------6b(7)p4---4-6-4h6p4---4-|
D-------------------------6-----------6---|
A-----------------------------------------|
E-----------------------------------------|

E--------4-----------------------|
B------4-----7b(9)r-7b(9)r-7b(9)-|
G-6b(8)--------------------------|
A--------------------------------|
E--------------------------------|

E--------------------------------------------------------------------16-18-|
B-9--8-9-11--9-11-13--11-13-14--11-13-14-13-14----16---16-18-20---20-------|
G----------------------------------------------13--------------------------|
D--------------------------------------------------------------------------|
A--------------------------------------------------------------------------|
E--------------------------------------------------------------------------|

1x intro
2x verse
1xprechorus
2x chorus

End:2x Tonigh my heartīs on the loose

E|------------------------------------------------------------|
B|------------------------------------------------------------|
G|----------8-8-8-8---------8-8-8-8---------8-8-8-8-------6---|
D|--6-6-6-6-8-8-8-8-6-6-6-6-8-8-8-8-6-6-6-6-8-8-8-8-6-6-6-6-6-|
A|--6-6-6-6-6-6-6-6-6-6-6-6-6-6-6-6-6-6-6-6-6-6-6-6-6-6-6-4-6-|
E|--4-4-4-4---------4-4-4-4---------4-4-4-4---------4-4-4---4-|


p - pull-off
h - hammer-on
b - bend
r - release

Iīll hope you enjoy it :)
Tap to rate this tab
# A B C D E F G H I J K L M N O P Q R S T U V W X Y Z